Song: Babez For Breakfast
Band: Lordi
Tabbed by: unspeakable.elvis@gmail.com
 
Legend:
h       hammer on
p       pull off
/       slide up to note
\       slide down from note
16\12   slide from 16th fret to 12th fret
T       tapping
 
 
Standard tuning.
 
 
Intro
~~~~~
|---------------------------------|---------------------------------|
|----------(drums)----------------|---------------------------------|
|---------------------------------|-----------------10\-------------|
|---------------------------------|---------------------------------|
 
 
|---------------------------------|---------------------------------|
|---------------------------------|---------------------------------|
|-0-0-0-0-0-2-0-0-3-0-0-2-0-0-0-0-|-0-0-0-0-0-2-0-0-3-2-0-3-2-0-5---|
|---------------------------------|---------------------------------|
 
 
|---------------------------------|---------------------------------|
|---------------------------------|---------------------------------|
|-0-0-0-0-0-2-0-0-3-0-0-2-0-0-0-0-|-0-0-0-0-0-2-0-0-3-2-0-3-2-0-----|
|---------------------------------|-----------------------------3---|
 
 
|---------------------------------|---------------------------------|
|---------------------------------|---------------------------------|
|-0-0-0-0-0-2-0-0-3-0-0-2-0-0-0-0-|-0-0-0-0-0-2-0-0-3-2-0-3-2-0-5---|
|---------------------------------|---------------------------------|
 
 
|---------------------------------|---------------------------------|
|---------------------------------|---------------------------------|
|-0-0-0-0-0-2-0-0-3-0-0-2-0-0-0-0-|-0-0-5-----2-----3-----2---------|
|---------------------------------|-----------------------------3---|
 
 
 
Verse
~~~~~
 "this buffet of meat..."       "is all you can eat..."
|---------------------------------|---------------------------------|
|---------------------------------|---------------------------------|
|---------------------------------|---------------------------------|
|-3-3-3-3-3-3-3-3-3-3-3-3-3-3-3-3-|-1-1-1-1-1-1-1-1-1-1-1-1-1-1-1-1-|
 
 
 "they'll never see..."         "disguise..."
|---------------------------------|---------------------------------|
|---------------------------------|---------------------------------|
|-5-5-5-5-5-5-5-5-5-5-5-5-5-5-5-5-|-0-0-0-0-0-2-0-0-3-0-0-2-0-0-0-0-|
|---------------------------------|---------------------------------|
 
 
 "i'll season them all..."          "special sauce..." 
|---------------------------------|---------------------------------|
|---------------------------------|---------------------------------|
|---------------------------------|---------------------------------|
|-3-3-3-3-3-3-3-3-3-3-3-3-3-3-3-3-|-1-1-1-1-1-1-1-1-1-1-1-1-1-1-1-1-|
 
 
 "i'll bang their flesh..."     "tenderize..."
|---------------------------------|---------------------------------|
|---------------------------------|---------------------------------|
|-5-5-5-5-5-5-5-5-5-5-5-5-5-5-5-5-|-7---7-----------7---7-----------|
|---------------------------------|---------------------------------|
 
 
                         "bay---"
|---------------------------------|
|---------------------------------|
|-7---7-----------7\--------------|
|---------------------------------|
 
 
 
Chorus
~~~~~~
 "be-e-e-e-e-z!"                                   "babies for..."
|---------------------------------|---------------------------------|
|---------------------------------|---------------------------------|
|---------------------------------|---------------------------------|
|-5-5-5-5-5-5-5-5-1-1-1-1-1-1-1-1-|-3-3-3-3-3-3-3-3-3-3-3-3-3-3-3-3-|
                                                   
 
 "breakfast and bitches..."                                "bay---"
|---------------------------------|---------------------------------|
|---------------------------------|---------------------------------|
|---------------------------------|-----------------3-3-3-3---------|
|-5-5-5-5-5-5-5-5-1-1-1-1-1-1-1-1-|-3-3-3-3-3-3-3-3---------4-4-4-4-|
 
 
 "be-e-e-e-e-z!"                                   "babies for..."
|---------------------------------|---------------------------------|
|---------------------------------|---------------------------------|
|---------------------------------|---------------------------------|
|-5-5-5-5-5-5-5-5-1-1-1-1-1-1-1-1-|-3-3-3-3-3-3-3-3-3-3-3-3-3-3-3-3-|
 
 
 "breakfast..."      "more sluts for lunch..."
|---------------------------------|---------------------------------|
|---------------------------------|-2-2-2-0-0-0---------------------|
|---------------------------------|-------------3-3-3-2-2-2---------|
|-5-5-5-5-5-5-5-5-1-1-1-1-1-1-1-1-|-------------------------4-------|
 
 
 
Post-Chorus
~~~~~~~~~~~ 
     "babes for breakfast!"        "bitches for brunch!"
|---------------------------------|---------------------------------|
|---------------------------------|---------------------------------|
|-----3-----------5-----3---------|-------------3-------------------|
|-----------5---------------------|-3-----5---------5---------------|
 
 
     "babes for breakfast!"        "bitches fo-o-o-or brunch!" 
|---------------------------------|---------------------------------|
|---------------------------------|---------------------------------|
|-----3-----------5-----3---------|-------------3-------------------|
|-----------5---------------------|-3-----5-------------5\----------|
 
 
 
Part of Intro again:
~~~~~~~~~~~~~~~~~~~
 
|---------------------------------|---------------------------------|
|---------------------------------|---------------------------------|
|-0-0-0-0-0-2-0-0-3-0-0-2-0-0-0-0-|-0-0-0-0-0-2-0-0-3-2-0-3-2-0-5---|
|---------------------------------|---------------------------------|
 
 
|---------------------------------|---------------------------------|
|---------------------------------|---------------------------------|
|-0-0-0-0-0-2-0-0-3-0-0-2-0-0-0-0-|-0-0-5-----2-----3-----2---------|
|---------------------------------|-----------------------------3---|
 
 
Then back to Verse, Chorus, Post-Chorus x2, after which:
             ~~~~~  ~~~~~~  ~~~~~~~~~~~
 
 
Pre-Solo
~~~~~~~~
 "never caught off guard..."       "never let them..."
|---------------------------------|---------------------------------|
|---------------------------------|---------------------------------|
|-2-2-2-2-2-2-2-2-2-2-2-2-2-2-2-2-|-2-2-2-2-2-2-2-2-0-0-0-0---------|
|---------------------------------|-------------------------3-3-2-2-|
 
 
 "at a-a-a-a-all..."
|---------------------------------|---------------------------------|
|---------------------------------|---------------------------------|
|---------------------------------|---------------------------------|
|-0-----3-----0-------3---0-------|-3---0-------0-------3---0-------|
 
 
 "i keep it up..."                 "the icon must never ever..."
|---------------------------------|---------------------------------|
|---------------------------------|---------------------------------|
|-2-2-2-2-2-2-2-2-2-2-2-2-2-2-2-2-|-0-0-0-0-0-0-0-0-----------------|
|---------------------------------|-----------------3-3-3-3-2-2-2-2-|
 
 
 "fa-a-a-a-all..."                   
|---------------------------------|
|---------------------------------|
|---------------------------------|
|-0-------------------------------|
 
 
Bass fill (pre-solo)
~~~~~~~~~~~~~~~~~~~~
 
OX does this live:
  T       T      T      T      T      T      T 
|---------------------------------------------------|
|-14-9p0--14-9p0------------------------------------|
|----------------14-9p0-14-9p0-13-9p0-13-9p0--------|
|--------------------------------------------12\----|
 
 
If that's too advanced, this will work too:
 
|-9-9-9-9---------------------|
|---------9-9-9-9-8-8-8-8-----|
|-------------------------7\--|
|-----------------------------|
 
 
 
During Solo play Verse part
                 ~~~~~
 
Then back to Chorus, Pre-Chorus x2, after which
             ~~~~~~  ~~~~~~~~~~
 
Intro is repeated amid chants of "babes for breakfast"
with this variation in the last two bars:
 
 
 "babes for breakfast..."       "and more sluts for lunch!" 
|---------------------------------|---------------------------------|
|---------------------------------|---------------------------------|
|-0-0-0-0-0-2-0-0-3-0-0-2-0-0-0-0-|-------------3-------------------|
|---------------------------------|-3-----5---------5\--------------|
 
 
End!