Bite It Like A Bulldog by Lordi
 
Song: Bite It Like A Bulldog
Band: Lordi
Tabbed by: unspeakable.elvis@gmail.com
 
Standard tuning
 
Bass intro:
|-------------------------------------|
|---------------------------------5---|
|---7---------------7-----5h7p5-----7-|
|-0---5-7-3-0---0-----5-7-------7-----|
 
 
Play three times for first intro, then
 
|-------------------------------------|
|-------------------------------------|
|---7---------------------------------|
|-0---5-7-3-0---0--0--0---------------|
 
 
 
Verse:
 "Caught red handed..."
|---------------------------------|---------------------------------|
|---------------------------------|---------------------------------| play x2
|-7---7-----------7---7-----------|-3---3---3-3---5---5---7-------7-|
|-------0---0---0-------0---0---0-|---------------------------------|
 
 
Bridge:
 "always trying to find another..."
|---------------------------------|---------------------------------|
|---------------------------------|---------------------------------|
|-3-3-3-3-3-3-3-3-5-5-5-5-5-5-5-5-|-----7------7------7------7--|
|---------------------------------|-0-------0-------0-------0-------|
 
 
|---------------------------------|---------------------------------|
|---------------------------------|---------------------------------|
|-3-3-3-3-3-3-3-3-5-5-5-5-5-5-5-5-|-----7------7----5---7---------|
|---------------------------------|-0-------0-------0---------------|
 
 
Chorus
|---------------------------------|---------------------------------|
|---------------------------------|---------------------------------| play x2
|-0-0-----0-0---0---0-------------|-------------------------0-0-----| 
|-------------------------3-3---1-|---1-----1-1---3---3-------------|
 
 
Play Intro riff x4, Verse, Bridge, Chorus
 
 
Middle part:      (Timing is tricky; counts included for your convenience :)
  1 & 2 & 3 & 4 & 1 & 2 & 3 & 4 &   1 & 2 & 3 & 4 & 1 & 2 & 3 & 4 & 
|---------------------------------|---------------------------------|
|-------------------------5---5-7-|---------------5-----------------|
|---5-7---5-7-------5-7-----------|-5-7---5---7-------7------------|
|---------------------------------|---------------------------------|
                   "You leave a trail of dead behind you..."
 
 
  1 & 2 & 3 & 4 & 1 & 2 & 3 & 4 &   1 & 2 & 3 & 4 & 1 & 2 & 3 & 4 & 
|---------------------------------|---------------------------------|
|---------------------------------|---------------3-----------------|
|---3-5---3-5-------3-5-----------|-3-5---3---5-------5-----/12----|
|-------------------------1---1-3-|---------------------------------|
      
 
  1 & 2 & 3 & 4 & 1 & 2 & 3 & 4 &   1 & 2 & 3 & 4 & 1 & 2 & 3 & 4 & 
|---------------------------------|---------------------------------|
|-------------------------5---5-7-|---------------5-----------------|
|---5-7---5-7-------5-7-----------|-5-7---5---7-------7------------|
|---------------------------------|---------------------------------|
 
 
  1 & 2 & 3 & 4 & 1 & 2 & 3 & 4 &   1 & 2 & 3 & 4 & 1 & 2 & 3 & 4 & 
|---------------------------------|---------------------------------|
|---------------------------------|---------------3---------3---3-5-|
|---3-5---3-5-------3-5-----------|-3-5---3---5-------5-------------|
|-------------------------1---1-3-|---------------------------------|
 
 
Play intro riff x4
 
 
 "Bite it..."  "Bite it..."        "Bite it..."  "Never let it go..."
|---------------------------------|---------------------------------|
|---------------------------------|---------------------------------|
|-0-------------2-----------------|---------------0-----------------|
|---------------------------------|-3-------------------------------|
 
 
 Chorus (modulated major second up)
|---------------------------------|---------------------------------|
|---------------------------------|---------------------------------| play x2
|-2-2-----2-2---2---2-----0-0-----|---------------0---0-----2-2-----| 
|-------------------------------3-|---3-----3-3---------------------|
 
 
|---------------------------------|---------------------------------|
|---------------------------------|---------------------------------|
|-2-2-----2-2---2---2-----0-0-----|---------------0---0-------------|
|-------------------------------3-|---3-----3-3-------------3-------|
                                                            hold
 
                        "Bite!"
|-----------------------------|
|-----------------------------|
|---------------7-5h7p5p0-----|
|-------------------------7--|
 
End.