Blood Red Sandman (Bassline)

The Monsterican Dream

Lordi

Tabbed by The Earthquake; TheEarthquake@fahr-zur-hoelle.org

 

Tuning: A-E-A-D

 

/=slide up

\=slide down

X=mute note

 

Intro:

 

D|--------------------------1-3----

A|---1-3-1--1-3-----1---1-3--------

E|---------------------------------

A|-3------------X-X----------------

 

D|--------------------------1-3----

A|---1-3-1--1-3-----1---1-3--------

E|---------------------------------

A|-3------------X-X----------------

 

D|--------------------------1-3----

A|---1-3-1--1-3-----1---1-3--------

E|---------------------------------

A|-3------------X-X----------------

 

D|---------------------------------

A|---1-3-1--1-3-----1-3------------

E|---------------------------------

A|-3------------X-X----------------

 

Verse

 

D|---------------------------------

A|---------------------------------

E|---------------------------------

A|-3-3-3-3-3-3-3-3-3-3-3-3-3-3-3-3-

 

D|--------------------------1------

A|------------------------1---3----

E|---------3---3--------3----------

A|-3-1---1-------3-----------------

 

D|---------------------------------

A|---------------------------------

E|---------------------------------

A|-3-3-3-3-3-3-3-3-3-3-3-3-3-3-3-3-

 

D|--------------------------1------

A|------------------------1---3----

E|---------3---3--------3----------

A|-3-1---1-------3-----------------

 

Bridge

 

D|---------------------------------

A|---------------------------------

E|-----------------3-3-3-3-3-3-3-3-

A|-1-1-1-1-1-1-1-1-----------------

 

D|---------------------------------

A|---------------------------------

E|-----------------4-4-4-4-4-4-4-4-

A|-3-3-3-3-3-3-3-3-----------------

 

D|---------------------------------

A|---------------------------------

E|-----------------3-3-3-3-3-3-3-3-

A|-1-1-1-1-1-1-1-1-----------------

 

D|---------------------------------

A|---------------------------------

E|-3-3-3-3-3-3-3-3-4-4--4----4-6-8-

A|---------------------------------

 

Chorus

 

D|---------------------------------

A|---------------------------------

E|-------4-4-4-4-------------------

A|-3-3-3---------1-1-1-1-3-3-3-3-3-

 

D|---------------------------------

A|---------------------------------

E|---------4-4-X-X-4-6--4----4-6-8-

A|-3-3-3-3-------------------------

 

D|---------------------------------

A|---------------------------------

E|-------4-4-4-4-------------------

A|-3-3-3---------1-1-1-1-3-3-3-3-3-

 

D|---------------------------------

A|---------------------------------

E|---------4-4-X-X-4-6--46-4------

A|-3-3-3-3-------------------------

 

D|-------------

A|-------------

E|---6-6---6-6-

A|-------------

 

Riff

 

D|--------------------------1-3----

A|---1-3-1--1-3-----1---1-3--------

E|---------------------------------

A|-3------------X-X----------------

 

D|---------------------------------

A|---1-3-1--1-3-----1-3------------

E|---------------------------------

A|-3------------X-X----------------

 

Verse

Bridge

Chorus

 

 

Mittelteil

 

D|---------------------------------

A|-5-------8-------7--------5--3---

E|---------------------------------

A|---------------------------------

 

D|---------------------------------

A|-1-------------0-----------------

E|------------------3--2-----------

A|---------------------------------

 

D|---------------------------------

A|-5-------8-------7--------5--3---

E|---------------------------------

A|---------------------------------

 

D|---------------------------------

A|-1---------------5-3-1-0-5-3-1-0-

E|---------------------------------

A|---------------------------------

 

D|---------------------------------

A|---------------------------------

E|-2---------------3---------------

A|---------------------------------

 

Quiet Bridge

 

D|---------------------------------

A|-1-1-----------------------------

E|-----------------3-3-------------

A|---------------------------------

 

D|---------------------------------

A|-3-3-----------------------------

E|-----------------4-4---4---------

A|---------------------------------

 

D|---------8---------------5-------

A|---------------------------------

E|-6-6---6---6-----3-3---3---3-----

A|---------------------------------

 

D|---------6-----------------------

A|---------------------------------

E|-4-4---4---4-----6----------4-6-8

A|---------------------------------

 

Quiet Chorus

 

D|---------------------------------

A|---------------------------------

E|-----8-4-----4-6-----6-8-----8-6-

A|---------------------------------

 

D|---------------------------------

A|---------------------------------

E|-8-8-----4-4-----4-6--4-6-4-4-6-8

A|---------------------------------

 

D|---------------------------------

A|---------------------------------

E|-----8-4-----4-6-----6-8-----8-6-

A|---------------------------------

 

D|---------------------------------

A|---------------------------------

E|-8-8-----4-4-----4-6--4-6-4------

A|---------------------------------

 

D|---------------------------------

A|---------------------------------

E|-X-6-6-X-6-6-----6----------6-8-10

A|--------------------5--3---------

 

Out Chorus

 

D|---------------------------------

A|---------------------------------

E|-------6-6-6-6-------------------

A|-5-5-5---------3-3-3-3-5-5-5-5-5-

 

D|---------------------------------

A|---------------------------------

E|---------6-6-X-X-6-8-6------6-8-10

A|-5-5-5-5-------------------------

 

D|---------------------------------

A|---------------------------------

E|-------6-6-6-6-------------------

A|-5-5-5---------3-3-3-3-5-5-5-5-5-

 

D|---------------------------------

A|---------------------------------

E|---------6-6-X-X-6-8-6--8-6------

A|-5-5-5-5-------------------------

 

D|---------------------------------

A|---------------------------------

E|---------------8-8---8-8---------

A|---------------------------------

 

Outro

 

D|--------------------------1-3----

A|---1-3-1--1-3-----1---1-3--------

E|---------------------------------

A|-3------------X-X----------------

 

D|---------------------------------

A|---1-3-1--1-3-----1-3-1-3--------

E|---------------------------------

A|-3------------X-X----------------

 

D|---------------------------------

A|---1-3-1--1-3--------------------

E|---------------------------------

A|-3------------9-------11---9\\\\\

 

D|---------------------------------

A|---------3---------------3-------

E|---------------------------------

A|-3-3-------------3-3-------------

 

D|---------------------------------

A|-----------3---------------------

E|---------------------------------

A|3--3--3--------------------------