Deadache by Lordi
 
Song: Deadache
Band: Lordi
Tabbed by: unspeakable.elvis@gmail.com
 
Standard tuning
 
In this song Mr. Ox largely ignores the rhythmic nuances of the guitar
and keyboards, preferring to just pound out steady sixteenth notes 
underneath everything. He uses some distortion in most parts.
 
Intro
~~~~~
|-------------------------------|-------------------------------|
|------------------------(x3)---|-------------------------------|
|-0-0---------------------------|-0-0---------------------3---2-|
|-------0-0---1-1---3-3---------|-------0-0---1-1---3-3---------|
 
 
Verse
~~~~~
|---------------------------------|---------------------------------|
|---------------------------------|---------------------------------|
|---------------------------------|---------------------------------| x2
|-2-2-2-2-2-2-2-2-2-2-2-2-2-2-2-2-|-0-0-0-0-0-0-0-0-0-0-0-0-0-0-0-0-|
 
 
Pre-chorus
~~~~~~~~~~
|---------------------------------|---------------------------------|
|---------------------------------|---------------------------------|
|-5-5-5-5-5-5-5-5-5-5-5-5-5-5-5-5-|-2-2-2-2-1-1-1-1-2-2-2-2-0-0-0-0-|
|---------------------------------|---------------------------------|
 
 
|---------------------------------|---------------------------------|
|---------------------------------|---------------------------------|
|---------------------------------|---------------------------------|
|-3-3-3-3-3-3-3-3-5-5-5-5-5-5-5-5-|-6-6-6-6-6-6-6-6-6-6-6-6--------|
 
 
Chorus
~~~~~~
|---------------------------------|---------------------------------|
|---------------------------------|---------------------------------|
|---------------------------------|-1-1-1-1-1-1-1-1-----------------| x2
|-3-3-3-3-3-3-3-3-3-3-3-3-3-3-3-3-|-----------------1-1-1-1-2-2-2-2-|
 
 
First chorus ending:
~~~~~~~~~~~~~~~~~~~~
|---------------------------------|
|---------------------------------|
|-6-6-6-6-6-6-6-6---------3---2---|
|-----------------1---0-----------|
 
 Back to Intro, Pre-chorus, Chorus
 
 
Second chorus ending
~~~~~~~~~~~~~~~~~~~~
|---------------------------------|---------------------------------|
|---------------------------------|---------------------------------|
|-6-6-6-6-6-6-6-6-6-6-6-6-6---6---|-7-7-7-7-7-7-7-7-7-7-7-7-7-7-7-7-|
|---------------------------8---8-|---------------------------------|
 
 
|-----------------------------11~-|
|---------------------11~---------|
|-9-9-9-9-9-9-9-9-9-9-----9-9-----|
|---------------------------------|
 
 
Interlude
~~~~~~~~~
|---------------------------------|---------------------------------|
|-5-----3---------2-----1---------|-0---------------------0---------|
|---------------------------------|-------1---------3---------------|
|---------------------------------|---------------------------------|
 
 
|---------------------------------|---------------------------------|
|-5-----3---------2-----1---------|---------------------------------|
|---------------------------------|-5-5-5-5-5-5-5-5-5-5-5-5-5-5-5-5-|
|---------------------------------|---------------------------------|
 
 
Solo
~~~~
|---------------------------------|---------------------------------|
|---------------------------------|---------------------------------|
|-2-2-2-2-2-2-2-2-1-1-1-1-1-1-1-1-|-2-2-2-2-2-2-2-2-0-0-0-0-0-0-0-0-|
|---------------------------------|---------------------------------|
 
 
|---------------------------------|---------------------------------|
|---------------------------------|---------------------------------|
|---------------------------------|---------------------------------|
|-3-3-3-3-3-3-3-3-5-5-5-5-5-5-5-5-|-6-6-6-6-6-6-6-6-6-6-6-6---------|
 
Then to Chorus
 
Chorus third ending
~~~~~~~~~~~~~~~~~~~
"sometimes,       sometimes..."
|---------------------------------|
|---------------------------------|
|-6-----7---------9-----9---------|
|---------------------------------|
 
 
Chorus (modulated major second up)
~~~~~~
|---------------------------------|----------------------------------|
|---------------------------------|----------------------------------|
|-0-0-0-0-0-0-0-0-0-0-0-0-0-0-0-0-|-3-3-3-3-3-3-3-3------------------|
|---------------------------------|-----------------3-3-3-3-4-4-4-4--|
 
"sometimes i end up with a deadache..."
|---------------------------------|
|---------------------------------|
|-8-8-8-8-8-8-8-8-9-9-9-9-9-9-9-9-|
|---------------------------------|
 
 
Finally:
~~~~~~~~
|-------------------------------|-------------------------------|
|------------------------(x3)---|-------------------------------|
|-0-0---------------------------|-0-0---------------------------|
|-------0-0---1-1---3-3---------|-------0-0---1-1---------------|
 
End!