Song: Dr Sin Is In
Band: Lordi
Tabbed by: unspeakable.elvis@gmail.com
 
Standard tuning
 
Legend:
h       hammer on
p       pull off
/       slide up to note
\       slide down from note
 
Intro
 
"strapped in the table..." etc.
|---------------------------------|---------------------------------|
|------guitar only----------------|---------------------------------|
|---------------------------------|---------------------------------|
|---------------------------------|---------------------------------|
 
"the doctor is in..."             "the doctor is in..."
|---------------------------------|---------------------------------|
|---------------------------------|---------------------------------|
|---------------------------------|---------------------------------|
|-3---------------1---------------|-3---------------1---------------|
 
 
Verse
|-------------------------------------------|-------------------------------------------|
|-------------------------------------------|-------------------------------------------|
|-0-0-0-0---0-----0-0-0-0-0---0---0---------|-0-0-0-0---0-----0-0-0-0-0---0---0-5---3---|
|-------------------------------------------|-------------------------------------------|
 
     "stained cyan wall tiles..."              
|-------------------------------------------|----------------------------------------------|
|-------------------------------------------|--------------------------------------------0-|
|-0-0-0-0---0-----0-0-0-0-0---0---0---------|-0-0-0-0---0-----0-0-0-0-0---0---0-2p0-2-3p0--|
|-------------------------------------------|----------------------------------------------|
 
      "he's like a reptile..."              
|-------------------------------------------|----------------------------------------------|
|-------------------------------------------|--------------------------------------------1-|
|-0-0-0-0---0-----0-0-0-0-0---0---0---------|-0-0-0-0---0-----0-0-0-0-0---0---0-2h0p2-3h0--|
|-------------------------------------------|----------------------------------------------|
 
    "the light's mesmerizing..."        
|-------------------------------------------|-------------------------------------------|
|-0-0-0-0---0-----0-0-0-0-0---0---0---------|-0-0-0-0---0-----0-0-0-0-0---0---0---------|
|-------------------------------------------|---------------------------------------3---|
|-------------------------------------------|-----------------------------------1-------|
 
    "the fear is paralyzing..."                                                  "the..."
|-------------------------------------------|-------------------------------------------|
|-------------------------------------------|-------------------------------------------|
|-0-0-0-0---0-----0-0-0-0-0---0---0---------|-0-0-0-0---0-----0-0-0-0-0---0-3-----------|
|-------------------------------------------|-------------------------------------------|
 
 
Bridge
 "doctor is in..."             the doctor is in..."
|---------------------------------|---------------------------------|
|---------------------------------|---------------------------------|
|---------------------------------|---------------------------------|
|-3---3---3---3---1---1---1---1---|-3---3---3---3---1---1---0-------|
 
 
First Chorus:
 "the cure is screaming..."
|------------------------------------------------|
|------------------------------------------------|
|-0-0-0-0---0-0-0-0-0----------------------------|
|-----------------------3-----3-----1------1-----|
 
"cut out the cancers..."
|------------------------------------------------|
|------------------------------------------------|
|-0-0-0-0---0-0-0-0-0---5-----5------------------|
|-----------------------------------3------------|
 
 "barely breathing..."
|------------------------------------------------|
|------------------------------------------------|
|-0-0-0-0---0-0-0-0-0----------------------------|
|-----------------------3-----3-----1------1-----|
 
 "but the rot will go...        doctor sin is in..."
|------------------------------------------------|
|------------------------------------------------|
|-5-5-5-5---5-5-5-5-5----1-1-1-1-1-1-1-1-1-1-1-1-|
|------------------------------------------------|
 
 
back to Verse, then Bridge
 
 
Second Chorus:
 "the cure is screaming..."
|------------------------------------------------|
|------------------------------------------------|
|-0-0-0-0---0-0-0-0-0----------------------------|
|-----------------------3-----3-----1------1-----|
 
"cut out the cancers..."
|------------------------------------------------|
|------------------------------------------------|
|-0-0-0-0---0-0-0-0-0---5-----5------------------|
|-----------------------------------3------------|
 
"barely breathing..."
|------------------------------------------------|
|------------------------------------------------|
|-0-0-0-0---0-0-0-0-0----------------------------|
|-----------------------3-----3-----1------1-----|
 
"but the rot will go..." 
|------------------------------------------------|
|------------------------------------------------|
|-5-5-5-5---5-5-5-5-5----7-7-7-7-7-7-7-7-7-7-7-7-|
|------------------------------------------------|
 
Repeat chorus
 
Second time ending:
 "but the rot will go...        doctor sin is in..."
|------------------------------------------------|
|------------------------------------------------|
|-5-5-5-5---5-5-5-5-5----1-1-1-1-1-1-1-1-1-1-1-1-|
|------------------------------------------------|
 
 
 
Middle bit just before solo:
|-------------------------------------------------|
|-------------------------------------------------|
|----------------guitar only----------------------|
|-------------------------------------------------|
 
  volume swell >
|-------------------------14-12----12-------------------------|
|-7-7-7-7-7-7-7-7-7-7-7-7-------14----14-12-14-12----12-------|
|-------------------------------------------------15----15-12-|
|-------------------------------------------------------------|
 
|-------------------------------------------------|
|-------------------------------------------------|
|-0-0-0-5---3-0-0-0-5---3-0-0-0-5---3-----3-1-----|
|-------------------------------------------------|
 
|-------------------------------------------------|
|-------------------------------------------------|
|-0-0-0-5---3-0-0-0-5---3-0---5---3---------------|
|-------------------------------------3---4---5---|
 
 
Solo
|-------------------------------------------------|
|-------------3-----------------------3-----------|
|-3h5-5---5-5---5-5---5-5-3h5-5---5-5---5-5---5-5-|
|-------------------------------------------------|
 
 
|-------------------------------------------------|
|-------------3-----------------------3----rest---|
|-3h5-5---5-5---5-5---5-5-3h5-5---5-5---5---------|
|-------------------------------------------------|
 
 
|-------------------------------------------------|
|-------------------------------------------------| play twice
|-------------3-----------------------3-----------|
|-3h5-5---5-5---5-5---5-5-3h5-5---5-5---5-5---5-5-|
 
 
|---------------------------------|---------------------------------|
|---------------------------------|---------------------------------|
|---------------------------------|---------------------------------|
|-3---3---3---3---1---1---1---1---|-3---3---3---3---1---1---0-------|
 
 
After solo:
|------------------------------------------------|
|------------------------------------------------|
|-0-0-0-0---0-----0-0-0-0-0---0---0--------------|
|------------------------------------------------|
 
 
|------------------------------------------------|
|------------------------------------------------|
|-0-0-0-0---0-----0-0-0-0-0---0---0-5---3--------|
|------------------------------------------------|
 
 
Back to Bridge, Second Chorus
 
 
Finally:
|------------------------------------------------|
|------------------------------------------------|
|-0-0-0-0---0-----0-0-0-0-0----------------------|
|------------------------------------------------|
 
 
End.