Hate At First Sight by Lordi

Song: Hate At First Sight
Band: Lordi
Tabbed By: unspeakable.elvis@gmail.com

Legend:
/ slide up to note
\ slide down from note

Counts are included here and there to help with rhythm. OX plays in standard tuning,
with a plectrum.

Intro
~~~~~

|-------------------------|-------------------------|
|-------------------------|-------------------------| Play
|-2--2--------------------|-------------5-----0-----| x2
|-------------------------|-3--3--------------------|


|-------------------------|-------------------------|
|-------------------------|-------------------------| Play
|-2--2--2--2--2--2--2--2--|-------------5--5--0--0--| x2
|-------------------------|-3--3--3--3--------------|


|-------------------------|-------------------------|
|-------------------------|---/9--7--5--4-----------|
|-2--2--2--2--2--2--2--2--|-2--------------7--5--4--|
|-------------------------|-------------------------|


Verse (Play x2)
~~~~~
"it's lovely to see you..."
1 + 2 + 3 + 4 + 1 + 2 + 3 + 4 +
|----------4--------------|-------------------------|
|-------------------------|-------------------------|
|-2--2--2--------2--2--2--|----2--0--4--5--4--0--4--|
|-------------------------|-------------------------|

1 + 2 + 3 + 4 + 1 + 2 + 3 + 4 +
|----------2--------------|-------------------------|
|-------------------------|-------------------------|
|-0--0--0--------0--0-----|----------0-----2-/4-----|
|-------------------------|-3--2--0-----------------|


Pre-Chorus
~~~~~~~~~~
"beware in the bed..."
1 + 2 + 3 + 4 + 1 + 2 + 3 + 4 +
|-------------------------|-------------------------|
|-------------------------|-------------------------|
|-------------------------|-0--0-----0-----0-----0--|
|-3--3-----3-----3-----3--|-------------------------|

"you choke me blue..." "this love was..."
1 + 2 + 3 + 4 + 1 + 2 + 3 + 4 +
|-------------------------|-------------------------|
|-------------------------|-------------------------|
|-2--2-----2-----2-----2--|-------------------------|
|-------------------------|-3--3--3--3--3--3--3--3--|

"never alive..."
|-------------------------|-------------------------|-------------------------|
|-------------------------|-------------------------|-------------------------|
|----------2--2--0--0-----|-------------------------|/9--9--9--9--9--9--9--9--|
|-3--3--3--------------2--|-2--2--2--2--2--2--2--2--|-------------------------|


Chorus (Play x2)
~~~~~~
"it was hate at first sight..."
|-------------------------|-------------------------|
|-------------------------|-------------------------|
|-2--2--2--2--2--2--2--2--|-------------------------|
|-------------------------|-3--3--3--3--3--3--3--3--|

"the lady and the tramp..." etc.
|-------------------------|-------------------------|
|-------------------------|-------------------------|
|-------------------------|-------------5--5--0--0--|
|/5--5--5--5--5--5--5--5--|3--3--3--3--------------|


After first chorus:

Intro 2
~~~~~~~

|-------------------------|-------------------------|
|-------------------------|-------------------------| Play
|-2--2--2--2--2--2--2--2--|-------------5--5--0--0--| x2
|-------------------------|-3--3--3--3--------------|

Then back to Verse, Pre-Chorus, Chorus


After second chorus:

Intro 3
~~~~~~~
"squalling..." "squalling..."
|-------------------------|-------------------------|
|-------------------------|-------------------------| Play
|-2--2--------------------|-------------5-----0-----| x2
|-------------------------|-3--3--------------------|


Guitar Solo (Play x2)
~~~~~~~~~~~

|-------------------------|-------------------------|
|-------------------------|-------------------------|
|-5--5--5--5--5--5--5--5--|-1--1--1--1--1--1--1--1--|
|-------------------------|-------------------------|


|-------------------------|-------------------------|
|-------------------------|-------------------------|
|-3--3--3--3--3--3--3--3--|-1--1--1--1--------3--3--|
|-------------------------|-------------1--1--------|


Keyboard Solo (Play x2)
~~~~~~~~~~~~~

|-------------------------|-------------------------|
|-------------------------|-------------------------|
|-------------------------|-4--4--4--4--4--4--4--4--|
|-1--1--1--1--1--1--1--1--|-------------------------|


|-------------------------|-------------------------|
|-------------------------|-------------------------|
|-6--6--6--6--6--6--6--6--|-------------6--6--6--6--|
|-------------------------|-4--4--4--4--------------|


After Keyboard Solo
~~~~~~~~~~~~~~~~~~~

|-------------------------|-------------------------|
|-------------------------|-------------------------|
|-5--5--5--5--5--5--5--5--|-5--5--5--5--5--5--5--5--|
|-------------------------|-------------------------|


Back to Chorus, after which


Chorus Modulated Up (Play x2)
~~~~~~~~~~~~~~~~~~~
"it was hate at first sight..." etc.
|-------------------------|-------------------------|
|-------------------------|-------------------------|
|-5--5--5--5--5--5--5--5--|-1--1--1--1--1--1--1--1--|
|-------------------------|-------------------------|


|-------------------------|-------------------------|
|-------------------------|-------------------------|
|-3--3--3--3--3--3--3--3--|-1--1--1--1--------3--3--|
|-------------------------|-------------1--1--------|


Intro/Outro
~~~~~~~~~~~

|-------------------------|-------------------------|
|-------------------------|-------------------------| Play
|-5--5--5--5--5--5--5--5--|-1--1--1--1--------3--3--| x4
|-------------------------|-------------1--1--------|


|-------------------------|
|-------------------------|
|-5-----------------------|
|-------------------------|

End