It Snows In Hell:
 
Intro/Verse
G|--------------------------|
D|--------------------------| 5x
A|----------------5--3------|
E|-5-----0-1----------------|
 
Pre-chorus
G|-----------------------------------------------------------------|
D|-----------------------------------------------------------------|
A|-----------------5-5-5-5-5-5-5-----------------------------------|
E|-3-3-3-3-3-3-3-3---------------0-1-1-1-1-1-1-1-1-3-3-3-3-3-3-3-3-|
 
Chorus 
G|----------------------------|
D|----------------------------| 3x
A|----------------------------|
E|-5--0-1-0--3--331-3-3-331-3-|
 
G|---------------------------------|
D|---------------------------------|
A|---------------------------------|
E|-1-1-1-1-1-1-1-1-0-0-0-0-4-4-4-4-|
 
Bridge
G|------------------------------------------------------------------|
D|------------------------------------------------------------------|
A|-----------------5-5-5-5-5-5-5-5-1-1-1-1-1-1-X5-------------------|
E|-0-0-0-0-0-0-0-0----------------------------------0-0-0-0-0-0-0-0-|
 
G|-------------------------------------------------|
D|-------------------------------------------------|
A|-5-5-5-5-5-5-5-5-1-1-1-1-1-1-1-1-3-3-3-3-3-3-3-3-|
E|-------------------------------------------------|
 
Solo
G|---------------------------------|
D|---------------------------------| 3x
A|-------------------------5-5-3-3-|
E|-5-5-5-5-5-5-5-0-1-1-1-1---------|
 
G|-------------------------------------------------------------|
D|-------------------------------------------------------------|
A|---------------5-5-5-5-5-5-----------------------------------|
E|-3-3-3-3-3-3-3-------------0-1-1-1-1-1-1-1-1-3-3-3-3-3-3-3-3-|
 
or...difficult
G|-----------------------------------------------------------------|
D|-----------5-----------------------------------7-5-5-5-5-5-5-5-5-|
A|-------3-57----3-5-5-5-35-353537-8-8-8-78-7878-------------------|
E|-3-3-3-------3---------------------------------------------------|
   1 - 2 - 3 - 4 - 1 - 2 - 3 - 4 - 1 - 2 - 3 - 4 - 1 - 2 - 3 - 4 -