Kalmageddon

Beginning Part
G|--2------------------------2----------------------------------------------|
D|--------------------------------------------------------------------------|
A|0---0h6-0h5-0h3-0h2/3----0----0h6--0h5--0h3-------------------------------|
E|--------------------------------------------------------------------------|

Next Part
G|--------------------------------------------------------------------------|
D|--------------------------------------------------------------------------|
A|0-0-3-5--00-6-5-0---0-0-3-5-----------------------------------------------|
E|--------------------------------355535------------------------------------|

"you start to feel the cold...."
G|--2------------------------2----------------------------------------------|
D|--------------------------------------------------------------------------|
A|0---0h6-0h5-0h3-0h2/3----0----0h6--0h5--0h3-------------------------------|
E|--------------------------------------------------------------------------|


"The age of ruin is upon us all"
G|--------------------------------------------------------------------------|
D|--------------------------------------------------------------------------|
A|----------065323-------0000/666\0-----------------------------------------|
E|--33-4--------------------------------------------------------------------|

chorus "Kalmageddon..."
G|--------------------------------------------------------------------------|
D|--------------------------------------------------------------------------|
A|-00----------00-----------------------------------------------------------|
E|----11--33--------------0---------------------------110-------------------|

guitar solo part
G|--------------------------------------------------------------------------|
D|--------------------------------------------------------------------------|
A|-2-0h22--2--0h22--4-2h44--4-2h44-2--0h22--2--0h22--4-2h44--4-2h44----3-1-0|
E|--------------------------------------------------------------------------|

beginning again
G|--2------------------------2----------------------------------------------|
D|--------------------------------------------------------------------------|
A|0---0h6-0h5-0h3-0h2/3----0----0h6--0h5--0h3-------------------------------|
E|--------------------------------------------------------------------------|

similar to beginning, but play a bit harder
G|------2--------------------------2---------------0h2----------------------|
D|--------------------------------------------------------------------------|
A|-0000---0h6-0h5-0h3-0h2/3---0000---0h6-0h5-0h3-0---------00-3-5-0-6-5-3---|
E|--------------------------------------------------------------------------|

chorus
G|--------------------------------------------------------------------------|
D|--------------------------------------------------------------------------|
A|-00----------00-----------------------------------------------------------|
E|----11--33--------------0---------------------------110-------------------|

End "Kneel before the Unholy Ghost.."
G|--------------------------------------------------------------------------|
D|--------------------------------------------------------------------------|
A|0-0-3-5--00-6-5-0---0-0-3-5-----------------------------------------------|
E|--------------------------------355535------------------------------------|