Song: My Heaven Is Your Hell
Band: Lordi
Tabbed by: unspeakable.elvis@gmail.com
Tuning: 4-string drop D (low to high: D-A-D-G)
Key: Am (mostly)
 
 
Intro (w/ bass distortion)
G|---------------------------------|
D|---------------------------------|
A|-------1---0---------------------| x3
D|-2-5-2---------2-5-2---2---2-0---|
 
G|--------------------------------------------------------|
D|--------------------------------------------------------|
A|-------1---0--------------------------------------rest--| 
D|-2-5-2---------2-5-2---2---2---2---2---2---2-0----------|
 
 
 
Verse
"as the night falls..."
G|-----------------------------------------------------------------|
D|-----------------------------------------------------------------|
A|---------------------------------3-3---3-3-3---3-3-3---3-3-3-5-5-|
D|-2-2---2-2-2---2-2-2---2-2-2---2---------------------------------|
 
 
G|-----------------------------------------------------------------|
D|-----------------------------------------------------------------|
A|---------------------------------3-3---3-3-3---3-3-rest----------|
D|-2-2---2-2-2---2-2-2---2-2-2---2---------------------------------|
 
 
 
Pre-chorus
 
"freedom from my life eternal..."
G|-----------------------------------------------------------------|
D|-----------------------------------------------------------------|
A|-5-3-5-----5-3-5---5-3-0-3-5-----5-3-5-----5-3-5---5-3-0-3-5-----|
D|-------0---------------------5---------0---------------------3---|
 
"night by night..."                                               "my..."
G|---------------------------------------------------------------------|
D|---------------------------------------------------------------------|
A|---------------------------------------------------------------------|
D|-3-3-3-3-3-3-3-3-3-3-3-3-3-3-3-3-5-5-5-5-5-5-5-5-5-5-2-2-2-2-5-5-5-5-|
 
 
Chorus
"...heaven is your hell..."
G|---------------------------------------------------------------|
D|-------------------7---9-10-7----------------------------------|
A|-0-0----0---0---0--------------5-5---5---5---5---5---7h8p7-5-7-|
D|---------------------------------------------------------------|
 
"the way you shine..."
G|---------------------------------------------------------------------|
D|---------------------------------------------------------------------|
A|---------------------------------5-5-5-5-5-5-5-5-7-7-7-7-10-10-10-10-|
D|-5-5-5-5-5-5-5-5-7-5---3-3-3-3-3-------------------------------------|
 
 
G|---------------------------------------------------------------|
D|-------------------7---9-10-7----------------------------------|
A|-0-0----0---0---0--------------5-5---5---5---5---5---7h8p7-5-7-|
D|---------------------------------------------------------------|
 
 
                            "by dawn I will be gone"
G|-----------------------------------------------------------------|
D|-----------------------------------------------------------------|
A|---------------------------------5-5-5-5-5-5-----0-----------/8\-|
D|-5-5-5-5-5-5-5-5-7-5---3-3-3-3-3-------------5-------------------|
 
 
 
After first chorus:
 
G|-------------------------------|
D|-------------------------------|
A|---2~----3~--------------------|
D|-3-----4-----2-5-2-2---5---0---|
 
 
 
Verse 2
"as the morning sun will rise..."
G|-----------------------------------------------------------------|
D|-------------------------------------------------0-----0-----1---|
A|---------------------------------3-3-3-3-3-3-3-3---3-1---3-1-----|
D|-2-2-2-2-2-2-2-2-2-2-2-2-2-2-2-2---------------------------------|
 
 
 
G|-----------------------------------------------------------------|
D|-----------------------------------------------------------------|
A|---------------------------------3-3-3-3-3-3-3-3--rest-----------|
D|-2-2-2-2-2-2-2-2-2-2-2-2-2-2-2-2---------------------------------|
 
 
 
Then to pre-chorus and chorus, after which:
 
 
Interlude
G|-----------------------------------------------|
D|-----------------------------------------------|
A|-----------------------5~---------6-7~---------|
D|-5~------------4~--3~--------------------------|
 
 
 
Solo
 
G|---------------------------------|
D|-5-3-5-----5-3-5---5-3---3-5/8-0-|
A|-----------------------5---------|
D|-------5-------------------------|
 
 
G|---------------------------------|
D|-1-1-----1-1-----1-1------1-1----|
A|-------1-------1--------1--------|
D|---------------------------------|
 
 
G|-------------------------------|
D|-2-0-2-----2-0-2---2-0---0-2-4-|
A|-----------------------2-------|
D|-------2-----------------------|
 
 
G|---------------------------------------------|
D|-9-9---9-9--------------------10-10-10-10-10-|
A|-----------11-9------------------------------|
D|----------------11-10-10---10----------------|
 
 
"my heaven is you hell..."
G|---------------------------------------------------------|
D|-------------------------------------------------7-------|
A|-0------rest---------------------------------0-------0---|
D|---------------------------------------------------------|
 
 
Chorus (with variations)
 
G|---------------------------------|
D|---------------------------------|
A|-5-5---5---5---5---5---7h8p7-5-7-|
D|---------------------------------|
 
 
G|-----------------------------------------------------9---------12-\---|
D|---------------------------------------------------9--------12--------|
A|---------------------------------5-5-5-5-5-5-5-5-7-------10-----------|
D|-5-5-5-5-5-5-5-5-7-5---3-3-3-3-3--------------------------------------|
 
 
G|---------------------------------------------------------------|
D|-------------------7---9-10-7----------------------------------|
A|-0-0----0---0---0----0-----------------------------------------|
D|-------------------------------0-0---0---0---0---0---0-0-5-7-7-|
 
 
G|-----------------------------------------------------------------|
D|-----------------------------------------------------------------|
A|-----------------------------------------------------------------|
D|-5-5-5-5-5-5-5-5-7-5---3-3-3-3-3-0-0-0-0-0-0-5---5-7---5-7---5---|
 
 
G|----------------------------------------------------------------|
D|---------------------7---9-10-7---------------------------------|
A|-0-0-0-0-0-0-0-0-0-0------------5-5-5-5-5-5-5-5-5-5-5-7h8p7-5-7-|
D|----------------------------------------------------------------|
 
 
G|--------------------------------------------------------------------|
D|--------------------------------------------------------------------|
A|---------------------------------5-5-5-5-5-5-5-5---0----------/8\---|
D|-5-5-5-5-5-5-5-5-7-5---3-3-3-3-3-----------------5------------------|
 
 
Outro:
 
 
G|-----------------------------------|
D|-------1---0-----------------------|
A|-0-3-0---------0-3-0---0---0-------|
D|-------------------------------5---|
 
 
G|-----------------------------------|
D|-------1---0-----------------------|
A|-0-3-0---------0-3-0---0---0-------|
D|-------------------------------7\--| End!
 
legend:
 
p pull off
h hammer on
/ slide up
\ slide down
~ hold note