Not the nicest Guy (Bassline)

Get Heavy

Lordi

Tabbed by The Earthquake; TheEarthquake@fahr-zur-hoelle.org

 

Tuning: A-E-A-D (Nich wundern; im Solo werdet ihrs brauchen :-))

 

/=slide up

\=slide down

X=mute note

 

Intro

                                                                                             repeat two times

D|---------------------------------------------------------------------------------------

A|---------------------------------------------------------------------------------------

E|-5-5-3-5---0-/3-5-5-3-5---0-/3-1-X-X-1---1-\0--------------------------------

A|---------------------------------------------------------------------------------------

 

Verse

 

D|---------------------------------------------------------------------------------------

A|---------------------------------------------------------------------------------------

E|-5-5-3-5---0-/3-5-5-3-5---0-/3-1-1-1-1-1-1-1-1-0-----------------------------

A|---------------------------------------------------------------------------------------

 

D|---------------------------------------------------------------------------------------

A|---------------------------------------------------------------------------------------

E|-5-5-3-5---0-/3-5-5-3-5---0-/3-1-1-1-1-1-1-1-1-0-----------------------------

A|---------------------------------------------------------------------------------------

 

Bridge

 

D|---------------------------------------------------------------------------------------

A|-3-3-3-3-3-3-3-3-------------------------5-5-5---------------1-1-1-1-----------
E|------------------------3-3-3-3-3-3-3-3-----------1-1-1-1-1-----------1-1-1-1--
A|---------------------------------------------------------------------------------------

 

D|---------------------------------------------------------------------------------------

A|-3-3-3-3-3-3-3-3----------------------1-1-1-1-1-1-1-1-1-1-1-1-1-0-3-5------
E|----------------------3-3-3-3-3-3-3-3----------------------------------------------
A|---------------------------------------------------------------------------------------

 

 

Chorus

 

D|----------------------------------------------------------------------------------------

A|-5-5-5-5-5-5-5-5-5-5-5-5-5-5-5-5------------------------------------------------
E|------------------------------------------3-3-3-3-3-3-3-3-3-4-4-4-4-4-4-4-4----
A|----------------------------------------------------------------------------------------

 

D|-------------------------------------------------------------------------------------------

A|-5-5-5-5-5-5-5-5--------------------3-3-3-3-3-3-3-3-3-3-3-3-3-3-4-4------------

E|---------------------1-1-1-1-1-1-1-1---------------------------------------------------

A|-------------------------------------------------------------------------------------------

 

D|----------------------------------------------------------------------------------------

A|-5-5-5-5-5-5-5-5-5-5-5-5-5-5-5-5------------------------------------------------
E|------------------------------------------3-3-3-3-3-3-3-3-3-4-4-4-4-4-4-4-4----
A|----------------------------------------------------------------------------------------

 

D|-------------------------------------------------------------------------------------------

A|-5-5-5-5-5-5-5-5--------------------3-3-3-3-3-3-3-3-3-3-3-3-3-3-4-4------------

E|---------------------1-1-1-1-1-1-1-1---------------------------------------------------

A|-------------------------------------------------------------------------------------------

 

Verse

 

D|---------------------------------------------------------------------------------------

A|---------------------------------------------------------------------------------------

E|-5-5-3-5---0-/3-5-5-3-5---0-/3-1-1-1-1-1-1-1-1-0-----------------------------

A|---------------------------------------------------------------------------------------

 

D|---------------------------------------------------------------------------------------

A|---------------------------------------------------------------------------------------

E|-5-5-3-5---0-/3-5-5-3-5---0-/3-1-1-1-1-1-1-1-1-0-----------------------------

A|---------------------------------------------------------------------------------------

 

Bridge

 

D|---------------------------------------------------------------------------------------

A|-3-3-3-3-3-3-3-3-------------------------5-5-5---------------1-1-1-1-----------
E|------------------------3-3-3-3-3-3-3-3-----------1-1-1-1-1-----------1-1-1-1--
A|---------------------------------------------------------------------------------------

 

D|---------------------------------------------------------------------------------------

A|-3-3-3-3-3-3-3-3----------------------1-1-1-1-1-1-1-1-1-1-1-1-1-0-3-5------
E|----------------------3-3-3-3-3-3-3-3----------------------------------------------
A|---------------------------------------------------------------------------------------

 

Chorus

 

D|----------------------------------------------------------------------------------------

A|-5-5-5-5-5-5-5-5-5-5-5-5-5-5-5-5------------------------------------------------
E|------------------------------------------3-3-3-3-3-3-3-3-3-4-4-4-4-4-4-4-4----
A|----------------------------------------------------------------------------------------

 

D|-------------------------------------------------------------------------------------------

A|-5-5-5-5-5-5-5-5--------------------3-3-3-3-3-3-3-3-3-3-3-3-3-3-4-4------------

E|---------------------1-1-1-1-1-1-1-1---------------------------------------------------

A|-------------------------------------------------------------------------------------------

 

D|----------------------------------------------------------------------------------------

A|-5-5-5-5-5-5-5-5-5-5-5-5-5-5-5-5------------------------------------------------
E|------------------------------------------3-3-3-3-3-3-3-3-3-4-4-4-4-4-4-4-4----
A|----------------------------------------------------------------------------------------

 

D|-------------------------------------------------------------------------------------------

A|-5-5-5-5-5-5-5-5--------------------3-3-3-3-3-3-3-3-3-3-3-3-3-3-4-4------------

E|---------------------1-1-1-1-1-1-1-1---------------------------------------------------

A|-------------------------------------------------------------------------------------------

 

Mittelteil:

 

D|----------------------------------------------------------------------------------------

A|----------------------------------------------------------------------------------------

E|-0-3-5---------------0-3-5--------------0-3-1-------------0-3-5-------------------

A|---------------------------------------------------------------------------------------

 

D|-------------------

A|-5-3--2-3--------

E|--------------1----

A|-------------------

 

Solo:

 

D|---------------------------------------------------------------------------------------

A|------------------------------------------------------------------1-1-1-1------------

E|------------------------3-3-3-3-3-3-3-3-----------1-1-1-1-1-----------1-1-1-1--

A|-3-3-3-3-3-3-3-3-------------------------5-5-5------------------------------------

 

D|---------------------------------------------------------------------------------------

A|-----------------------------------------1-1-1-1-1-1-1-1-1-1-1-1-1-0-3-5-------

E|---------------------3-3-3-3-3-3-3-3------------------------------------------------

A|-3-3-3-3-3-3-3-3-------------------------------------------------------------------

 

Chorus

 

D|----------------------------------------------------------------------------------------

A|-5-5-5-5-5-5-5-5-5-5-5-5-5-5-5-5------------------------------------------------
E|------------------------------------------3-3-3-3-3-3-3-3-3-4-4-4-4-4-4-4-4----
A|----------------------------------------------------------------------------------------

 

D|-------------------------------------------------------------------------------------------

A|-5-5-5-5-5-5-5-5--------------------3-3-3-3-3-3-3-3-3-3-3-3-3-3-4-4------------

E|---------------------1-1-1-1-1-1-1-1---------------------------------------------------

A|-------------------------------------------------------------------------------------------

 

D|----------------------------------------------------------------------------------------

A|-5-5-5-5-5-5-5-5-5-5-5-5-5-5-5-5------------------------------------------------
E|------------------------------------------3-3-3-3-3-3-3-3-3-4-4-4-4-4-4-4-4----
A|----------------------------------------------------------------------------------------

 

D|-------------------------------------------------------------------------------------------

A|-5-5-5-5-5-5-5-5--------------------3-3-3-3-3-3-3-3-3-3-3-3-3-3----0-3-5------

E|---------------------1-1-1-1-1-1-1-1---------------------------------------------------

A|-------------------------------------------------------------------------------------------