Song: Pet The Destroyer
Band: Lordi
Tabbed by: unspeakable.elvis@gmail.com
 
Tuning: D standard (low to high: D G C F)
 
Legend:
h       hammer on
p       pull off
/       slide up to note
\       slide down from note
 
Cut the treble knob a bit for this one.
 
 
Intro
~~~~~
 
|---------------------------------|---------------------------------|
|---------------------------------|---------------------------------|
|---------------------------------|--------------rest---------------|
|----------------/15\-------------|---------------------------------|
 
 
 Guitar riff enters
|---------------------------------|---------------------------------|
|---------------------------------|---------------------------------|
|---------------------------------|---------------------------------|
|---------3---------------3-------|---------3---------------3-------|
 
 
|---------------------------------|---------------------------------|
|---------------------------------|---------------------------------|
|---------------------------------|-----------------5---------------|
|---------3---------------3-------|---------3-------------1-----2---|
 
 
Intro (w/ drums)
~~~~~~~~~~~~~~~~
 
|---------------------------------|---------------------------------|
|---------------------------------|---------------------------------|
|---------------------------------|---------------------------------|
|-3-------3-------3-------3---1---|-3-------3-------3-------3---1---|
 
 
|---------------------------------|---------------------------------|
|---------------------------------|---------------------------------|
|---------------------------------|-----------------5---------------|
|-3-------3-------3-------3---1---|-3-------3---3-3-------1-----2---|
 
 
Verse 1
~~~~~~~
 
|---------------------------------|---------------------------------|
|---------------------------------|---------------------------------|
|---------------------------------|---------------------------------|
|-3---3-3-3---3-3-3---3-3-3---3-3-|-3---3-3-3---3-3-3---3-3-3---3-3-|
 
 
|---------------------------------|---------------------------------|
|---------------------------------|---------------------------------|
|---------------------------------|-----------------1---------------|
|-3---3-3-3---3-3-3---3-3-3---3-3-|-3---3-3-3---3-3-------1-----2---|
 
 
 "its breath intoxicating..."      "its ego suffocating, it's..."
|---------------------------------|---------------------------------|
|---------------------------------|---------------------------------|
|---------------------------------|---------------------------------|
|-3---3-3-3---3-3-3---3-3-3---3-3-|-3---3-3-3---3-3-3---3-3-3---3-3-|
 
 
 "here in my house --               trying to get out..."
|---------------------------------|---------------------------------|
|---------------------------------|---------------------------------|
|---------------------------------|---------------------------------|
|-1-----1---0h1-------1---0h1-----|-1-----1---0h1-------1---1h2-----|
 
 
 "its moves exhilirating..."
|---------------------------------|---------------------------------|
|---------------------------------|---------------------------------|
|---------------------------------|---------------------------------|
|-3---3-3-3---3-3-3---3-3-3---3-3-|-3---3-3-3---3-3-3---3-3-3---3-3-|
 
 
 "it's no sage --               rampage in cage...   but you'll be..."
|---------------------------------|---------------------------------|
|-------------3-----3-------------|-------------3-----3-------------|
|---------------------------------|---------------------------------|
|-1-----1-----------------1-------|-1-----1-----------------1-------|
 
 
Bridge
~~~~~~
 "safe --                   you can feed it --          you wanna..."
|---------------------------------|---------------------------------|
|-1---1---1---1---1---1---1---1---|-----------------------------0---|
|---------------------------------|-1-------------------------------|
|---------------------------------|-------------1-------------------|
 
 
 "play? --              it's almost tamed --              pet the..."
|---------------------------------|---------------------------------|
|-1---1---1---1---1---1---1---1---|---------------------------------|
|---------------------------------|-5---5---5---5\------------------|
|---------------------------------|---------------------------------|
 
 
Chorus
~~~~~~
 "destroyer! --      my beast le royale --              pet my..."
|---------------------------------|---------------------------------|
|---------------------------------|---------------------------------|
|-------------8h10----8---10------|-------------8h10----8---10------|
|-3-------3-----------------------|-3-------3-----------------------|
 
 
 "destroyer --               sweet killing machine --   pet my..."     
|---------------------------------|---------------------------------|
|---------------------------------|---------------------------------|
|-------------5/8-----5---8-------|-------------5/8-----5---8---9---|
|-1-------1-----------------------|-1-------1-----------------------|
 
 
 "destroyer..."                                        "oh won't you..."
|---------------------------------|---------------------------------|
|---------------------------------|---------------------------------|
|-------------8h10----8---10------|-------------8h10----8---10------|
|-3-------3-----------------------|-3-------3-----------------------|
 
 
 "please meet the beast?"
|---------------------------------|
|---------------------------------|
|-1---1---1---1-------------------|
|-----------------1---1---1---2---|
 
 
Verse 2
~~~~~~~
 
|---------------------------------|---------------------------------|
|---------------------------------|---------------------------------|
|---------------------------------|-----------------1---------------|
|-3---3-3-3---3-3-3---3-3-3---3-3-|-3---3-3-3---3-3-------1-----2---|
 
 
 "its stare infatuating..."
|---------------------------------|---------------------------------|
|---------------------------------|---------------------------------|
|---------------------------------|---------------------------------|
|-3---3-3-3---3-3-3---3-3-3---3-3-|-3---3-3-3---3-3-3---3-3-3---3-3-|
 
 
 "it breaks off the leash..."
|---------------------------------|---------------------------------|
|---------------------------------|---------------------------------|
|---------------------------------|---------------------------------|
|-1-----1---0h1-------1---0h1-----|-1-----1---0h1-------1---1h2-----|
 
 
 "its jaws intimidating..."
|---------------------------------|---------------------------------|
|---------------------------------|---------------------------------|
|---------------------------------|---------------------------------|
|-3---3-3-3---3-3-3---3-3-3---3-3-|-3---3-3-3---3-3-3---3-3-3---3-3-|
 
 
 "it looks kinda mad..."                                "this isn't..."
|---------------------------------|---------------------------------|
|-------------3-----3-------------|-------------3-----3-------------|
|---------------------------------|---------------------------------|
|-1-----1-----------------1-------|-1-----1-----------------1-------|
 
 
Back to Bridge, then Chorus, after which:
 
Middle bit before solo
~~~~~~~~~~~~~~~~~~~~~~
 "the beast --        oh won't you please --       feed my..."
|---------------------------------|---------------------------------|
|---------------------------------|---------------------------------|
|---------------------------------|-6---6---6---6-------------------|
|-3---3---3---3---3---3---3---3---|-----------------1---1---1---2---|
 
 
 "beast?"
|---------------------------------|---------------------------------|
|---------------------------------|---------------------------------|
|---------------------------------|---------------------------------|
|-3-------3-------3-------3---1---|-3-------3-------3-------3---1---|
 
 
|---------------------------------|---------------------------------|
|---------------------------------|---------------------------------|
|---------------------------------|---------------------------------|
|-3-------3-------3-------3---1---|-3-------3-------1-----2-----3---|
 
 
|---------------------------------|---------------------------------|
|---------------------------------|---------------------------------|
|-1-----2-----3-------------------|-3-------------------------------|
|-----------------1-----2-----3---|---------------------------------|
 
 
|---------------------------------|
|---------------------------------|
|-1-------------------------------|
|-----------------1-------2-------|
 
 
Guitar Solo
~~~~~~~~~~~
 
|---------------------------------|---------------------------------|
|---------------------------------|---------------------------------|
|---------------------------------|---------------------------------|
|-3---3-3-3---3-3-3---3-3-3---3-3-|-3---3-3-3---3-3-3---3-3-3---3-3-|
 
 
|---------------------------------|---------------------------------|
|---------------------------------|---------------------------------|
|---------------------------------|---------------------------------|
|-1---1-1-1---1-1-1---1-1-1---1-1-|-1---1-1-1---1-1-1---1-1-1---2---|
 
 
|---------------------------------|---------------------------------|
|---------------------------------|---------------------------------|
|---------------------------------|---------------------------------|
|-3---3-3-3---3-3-3---3-3-3---3-3-|-3---3-3-3---3-3-3---3-3-3---3-3-|
 
 
|---------------------------------|---------------------------------|
|---------------------------------|---------------------------------|
|-1-------------------------------|---------------------------------|
|-----------------1-----------2---|-3-------------------------------|
 
 
                        "pet  the..."
|---------------------------------|
|---------------------------------|
|-6-------------------------------|
|-----------------1-----------2---|
 
 
Back to Chorus x2, after which:
                    
 
Finale
~~~~~~
 
 "the beast --        oh won't you please --       feed my..."
|---------------------------------|---------------------------------|
|---------------------------------|---------------------------------|
|---------------------------------|-6---6---6---6-------------------|
|-3---3---3---3---3---3---3---3---|-----------------1---1---1---2---|
 
 
 "beast!"
|---------------------------------|
|---------------------------------|
|-1-----3-----1---1---------------|
|---3-3---3-3---3---3-1---3-------|
 
 
End.