this is heavy metal
 
turning
DGDG
 
intro
|------------------------------------------|
|------------------------------------------|
|---------------------------------------3-5|
|-0-7-0-6-0-5-0-3-2-3-2-0-7-0-6-0-5-0-3----|
 
verse
|----------------------------------------------------|
|----------------------------------------------------|
|---------------------------5-5-5-5-5-5-5-3-3-3-3----|
|-0-0-0-0-0-0-0-0-0-0-0-0-0-----------------------3-5|x2
 
pre-chorus
|------------------------------------------------------------------|
|------------------------------------------------------------------|
|-0-0-0-0-0-0-0-0-5-5-5-5-5-5-5-5----------------------------------|
|---------------------------------0-0-2-0-2-3-0-0-2-3-2-0-0-0-0-2-3|
 
|------------------------------------------------------|
|------------------------------------------------------|
|-0-0-0-0-0-0-0-0-5-5-5-5-5-5-5-5-3-3-3-3-3-3-3-3-2-2-2|
|------------------------------------------------------|
 
chorus
 
|------------------------------------------|
|------------------------------------------|
|---------------------------------------3-5|
|-0-7-0-6-0-5-0-3-2-3-2-0-7-0-6-0-5-0-3----|x2
 
verse
|----------------------------------------------------|
|----------------------------------------------------|
|---------------------------5-5-5-5-5-5-5-3-3-3-3----|
|-0-0-0-0-0-0-0-0-0-0-0-0-0-----------------------3-5|x2
 
pre-chorus
|------------------------------------------------------------------|
|------------------------------------------------------------------|
|-0-0-0-0-0-0-0-0-5-5-5-5-5-5-5-5----------------------------------|
|---------------------------------0-0-2-0-2-3-0-0-2-3-2-0-0-0-0-2-3|
 
|------------------------------------------------------|
|------------------------------------------------------|
|-0-0-0-0-0-0-0-0-5-5-5-5-5-5-5-5-3-3-3-3-3-3-3-3-2-2-2|
|------------------------------------------------------|
 
chorus
 
|------------------------------------------|
|------------------------------------------|
|---------------------------------------3-5|
|-0-7-0-6-0-5-0-3-2-3-2-0-7-0-6-0-5-0-3----|
 
|--------------------------------------|
|--------------------------------------|
|-----------2-2-2-2-2-2-2-2-2-2-2-2-3-5|
|-0-7-0-6-0----------------------------|
 
 
the part when they sing (heavy metal)
|----------------------------------|
|----------------------------------|
|----------------------------------|
|-0-0-2-0-2-3-0-0-2-3-2-0-0-0-0-2-3|x3
 
|----------------------------|
|----------------------------|
|-------------------------3-5|
|-0-0-2-0-2-3-0-0-2-3-2-0----|
 
solo
 
|--------------------------------------------------------------------------|
|--------------------------------------------------------------------------|
|-0-0-0-0-0-0-0-0-0-0-0-0-0-0-0-0-0-0-0-0-0-0-0-0-2-2-2-2-2-2-2-2-2-2-2-2-2|
|--------------------------------------------------------------------------|
 
|----------------|
|----------------|
|-3-3-3-3-3-3-3-5|
|----------------|
 
in the end of the break
 
|----------------------------|
|----------------------------|
|-2-2-2-2-2-2-2-2-2-2-2-2-3-5|
|----------------------------|
 
chorus
 
|------------------------------------------|
|------------------------------------------|
|---------------------------------------3-5|
|-0-7-0-6-0-5-0-3-2-3-2-0-7-0-6-0-5-0-3----|x3
 
|-----------------------------------------|
|-----------------------------------------|
|---------------------------------------3-|
|-0-7-0-6-0-5-0-3-2-3-2-0-7-0-6-0-5-0-3---|