Lordi - Wake the Snake
Tuning: Standard, EADG

Intro
E |----|-----------|
A |----|-----------|
D |----|-----3---5-|X2
G |-00-|-00----3---|

E |------------------|-----|-----------------|
A |-2222222222222222-|-----|-2-0-------------|
D |------------------|-3-5-|-----2-1-0-------|
G |------------------|-----|-----------3-2-0-|

Verse
E |---------------------------------------------|----------------------------|
A |---2-0-2---2-0-2---2-0-2-0---------------0-2-|-0000000---22222------------|
D |---------------------------2-0-------0-2-----|---------2-------2-3--3-3-5-|X2
G |-0-------3-------3-------------3-0-3---------|----------------------------|

Chorus
E |---------------------------------------------------------------------------|
A |----------22222222----------22222222----------22222222---------------------|
D |-33333333----------33333333----------33333333----------55555555-33333333-5-|
G |---------------------------------------------------------------------------|

E |-----------|-----------|-------------|-----------|
A |-2222------|-2222------|-2-----5---2-|-----------|
D |------3333-|------5555-|---3-3---5---|-3333-5555-|
G |-----------|-----------|-------------|-----------|

E |------------------------------------------------------------|
A |-222222222222222222222222---5-----222222222-2-0-------------|
D |--------------------------3---5-----------------2-1-0-------|
G |--------------------------------0---------------------3-0-0-|

2nd Chorus
E |-------------------455455455455455-97-97-97-------------|
A |----------22222222-------------------9--9--9------------|
D |-33333333------------------------------------7777777777-|
G |--------------------------------------------------------|

E |--------------------------------------|
A |----------22222222--------------------|
D |-33333333----------55555555-3333333-5-|
G |--------------------------------------|

Bridge
E |-------------------------------------5-|------------------------------|
A |-------------------------5-------5h7---|----------------------5-------|
D |-3--3-2-0------3-----5h7---7-5h7-------|-3--3-2-0-----3---5h7---7---5-|
G |-----------0-3---0---------------------|----------0-3---0-------------|

Ending
E |-------------------------------------------|
A |-2222------2222------2-----5---2-----------|
D |------3333------5555---3-3---5---3333-5555-|X2
G |-------------------------------------------|

E |------------------------------------------------------------|
A |-222222222222222222222222---5-----222222222-2-0-------------|
D |--------------------------3---5-----------------2-1-0-------|
G |--------------------------------0---------------------3-0-0-|