Devil Is A Loser

Get Heavy

Lordi

Tabbed by Stephan Peters; webmaster@stephanpeters.de

 

 

Use dropped D Tuning and have fun, it’s pretty easy!

 
/= slide up
\= slide down
x= mute note
h= hammer on
P.M = Palm Mute
b = bend string up a 1/4 note  (only in this song)
r = release string
 
Intro
  Play 3 times then continue to part 2
E|-----------------
H|-----------------
G|-----------------
D|-1-1--4-6-6b--6--
A|-1-1--4-6-6b--6-- 
D|-1-1--4-6-6b--6--   
 
 Part 2         | A.H.|   
E|--------------
H|--------------
G|--------------
D|-1-1--4--5-5-5
A|-1-1--4--5-5-5
D|-1-1--4-------
                       Repeat all above 3 times
_____________________________________________________________



     All single notes P.M!!

E|-----------------------------------------------------------------
H|-----------------------------------------------------------------
G|-5-------------------------5---5-5-------------------------5--5-3-
D|-5-------------------------5---5-5-------------------------5--5-3-
A|-3-3-3-3-3-3-3-3-3-3-3-3-3-3-3-3-3-3-3-3-3-3-3-3-3-3-3-3-3-3--3-1-
D|-----------------------------------------------------------------

 

E|-------------------------------------------------------------
H|-------------------------------------------------------------
G|---------3--3--------------------------------5----------3--3-
D|---------3--3-5---------5--5-6-----6-5-----5-5----------3--3-
A|-1-1-1-1-1--1-5---------5--5-6-----6-5-----5-3-3-3-3-3--1--1-

D|--------------5-5-5-5-5-5--5-6-6-6-6-5-5-5-5-----------------

 

 

E|-----------------------------------------------------------------
H|-----------------------------------------------------------------
G|-5-------------------------5--5-5-------------------------5--5-3-
D|-5-------------------------5--5-5-------------------------5--5-3-
A|-3-3-3-3-3-3-3-3-3-3-3-3-3-3--3-3-3-3-3-3-3-3-3-3-3-3-3-3-3--3-1-
D|-----------------------------------------------------------------

 

E|------------------------------------------------------------
H|------------------------------------------------------------
G|---------3--3--------------------------------5--------------
D|---------3--3-5---------5--5-6-----6-5-----5-5--------------
A|-1-1-1-1-1--1-5---------5--5-6-----6-5-----5-3-3-3-3-3-3-3-3

D|--------------5-5-5-5-5-5--5-6-6-6-6-5-5-5-5----------------

 

 

--- All single notes P.M!!    ; After this, play from Intro without

 Via Hell Incorporated…         Repeating! After Chorus go to Fill In

E|--------------------------------------------------------------
H|--------------------------------------------------------------

G|-----8---8-8--3-3-------------------6---6-6-------------------
D|-----8---8-8--3-3-------------------6---6-6--6-6--------------
A|-6-6-6-6-6-6--1-1-1-1-1-1-1-1-1-4-4-4-4-4-4--6-6--------------

D|---------------------------------------------6-6-6-6-6-6-6-6-1

 

E|--------------------------------------------
H|--------------------------------------------
G|---------------------------------8-8--7-7---
D|-----9-----9-----4------------4--8-8--7-7--5
A|-----9-----9-----4------------4--6-6--5-5--5
D|-9-9-9-9-9-9-9-9-4--------4-4-4------------5

 

Chorus                        |         P.M          |

E|-------------------------------------------------------------
H|-------------------------------------------------------------
G|-5-5---------3-3--5-5--3-3------------------3-3-3-3----------

D|-5-5---6-6---3-3--5-5--3-3--6-6-6-6-1-1-1-1-3-3-3-3----1-0---

A|-3-3---6-6---1-1--3-3--1-1--6-6-6-6-1-1-1-1-1-1-1-1--3-----1-
D|-------6-6------------------6-6-6-6-1-1-1-1------------------

 

                             |       P.M.   |

E|-------------------------------------------------
H|-------------------------------------------------
G|-5-5---------3-3--5-5--3-3-------------------3--3

D|-5-5---6-6---3-3--5-5--3-3--6-6-6-6-1-1-1-1--3--3

A|-3-3---6-6---1-1--3-3--1-1--6-6-6-6-1-1-1-1--1--1
D|-------6-6------------------6-6-6-6-1-1-1-1------

 

 

Fill In

    After fill in, play the Intro and Part 2, then, the last 3 Chords are starting

     After this Fill In  (I hope you understand ^^ )                                                  

E|---------------------------------------------------------------------
H|---------------------------------------------------------------------
G|---------------------------------------------------------------------
D|-1-1-1--------6b--6--1--1------6b--6--1--1------6b--6--1--1-----3-3-3
A|-1-1-1--------6b--6--1--1------6b--6--1--1------6b--6--1--1-----3-3-3

D|-1-1-1--------6b--6--1--1------6b--6--1--1------6b--6--1--1----------

 

  End of the “Intro”

E|----------
H|----------
G|-5-------3
D|-5---6---3
A|-3---6---1
D|-----6----

  

 Solo

E|-------------------------------------------------------
H|-------------------------------------------------------
G|-------------------------------------------------------
D|-0--3-0---3--------2---3--2--0--3-0---3--------2---3--2
A|--------1---1-3--3---3--------------1---1-3--3---3-----
D|-------------------------------------------------------

 

E|--------------------------------------------------------
H|--------------------------------------------------------
G|---------------------------------------------8-8--7-7---
D|-1--4-1---4--------3---4--3--1--4-1---4------8-8--7-7--5
A|--------2---2-4--4---4--------------2---2-2--6-6--5-5--5
D|-------------------------------------------------------5