Song: Dr Sin Is In
Band: Lordi
Tabbed by: unspeakable.elvis@gmail.com
 
Standard tuning
 
Legend:
.       palm mute
h       hammer on
p       pull off
/       slide up to note
\       slide down from note
7b9     bend 7th fret major second up
9r7     release previous bend
x       dead note
~       vibrato
7b9r7p5 bend 7th fret up, then release bend and pull off to 5th fret.
 
 
 
Intro
 
|---------------------------------|---------------------------------|
|---------------------------------|-3---3---------------------------|
|---------------------------------|-2---2---------------------------|
|-------------------------------2-|-0---0-2-----------------------2-|
|-------------------------------0-|-------0-----------------------0-|
|---------------------------------|---------------------------------|
 
             "strapped in the table..."
|---------------------------------|---------------------------------|
|-3---3---------------------------|-3---3---------------------------|
|-2---2---------------------------|-2---2---------------------------|
|-0---0---2---------------------2-|-0---0---2---------------------2-|
|---------0---------------------0-|---------0---------------------0-|
|---------------------------------|---------------------------------|
 
             "caught in the fable..."                   "the doctor is in..."
|---------------------------------|---------------------------------|
|-3---3---------------------------|-3---3---------------------------|
|-2---2---------------------------|-2---2---------------------------|
|-0---0---2---------------------2-|-0---0---2-----------------------|
|---------0---------------------0-|---------0-----------------------|
|---------------------------------|---------------------------------|
 
 
|---------------------------------|
|---------------------------------|
|---------------------------------|
|---------------------------------|
|-0h3p0h3p0h3p0h3p0h3p0h3p0h3...--|
|---------------------------------|
  trill
 
 
"the doctor is in..."             "the doctor is in..."
|---------------------------------|---------------------------------|
|---------------------------------|---------------------------------|
|---------------------------------|---------------------------------|
|-5---------------3---------------|-5---------------3---------------|
|-5---------------3---------------|-5---------------3---------------|
|-3---------------1---------------|-3---------------1---------------|
 
 
Verse
|-------------------------------------------|-------------------------------------------|
|-------------------------------------------|-------------------------------------------|
|-------------------------------------------|-------------------------------------------|
|-------------------------------------------|-----------------------------------7---5---|
|-0-0-0-0---0-----0-0-0-0-0---0---0---------|-0-0-0-0---0-----0-0-0-0-0---0---0-5---3---|
|-------------------------------------------|-------------------------------------------|
  . . . .   .     . . . . .   .   .           . . . .   .     . . . . .   .   .
 
     "stained cyan wall tiles..."              
|-------------------------------------------|----------------------------------------------|
|-------------------------------------------|----------------------------------------------|
|-------------------------------------------|----------------------------------------------|
|-------------------------------------------|--------------------------------------------0-|
|-0-0-0-0---0-----0-0-0-0-0---0---0---------|-0-0-0-0---0-----0-0-0-0-0---0---0-2p0-2-3p0--|
|-------------------------------------------|----------------------------------------------|
  . . . .   .     . . . . .   .   .           . . . .   .     . . . . .   .   .
 
      "he's like a reptile..."              
|-------------------------------------------|----------------------------------------------|
|-------------------------------------------|----------------------------------------------|
|-------------------------------------------|----------------------------------------------|
|-------------------------------------------|--------------------------------------------1-|
|-0-0-0-0---0-----0-0-0-0-0---0---0---------|-0-0-0-0---0-----0-0-0-0-0---0---0-2h0p2-3h0--|
|-------------------------------------------|----------------------------------------------|
  . . . .   .     . . . . .   .   .           . . . .   .     . . . . .   .   .
 
    "the light's mesmerizing..."        
|-------------------------------------------|-------------------------------------------|
|-------------------------------------------|-------------------------------------------|
|-------------------------------------------|-------------------------------------------|
|-0-0-0-0---0-----0-0-0-0-0---0---0---------|-0-0-0-0---0-----0-0-0-0-0---0---0-----5---|
|-------------------------------------------|-----------------------------------3---3---|
|-------------------------------------------|-----------------------------------1-------|
  . . . .   .     . . . . .   .   .           . . . .   .     . . . . .   .   .
 
    "the fear is paralyzing..."                                                  "the..."
|-------------------------------------------|-------------------------------------------|
|-------------------------------------------|-------------------------------------------|
|-------------------------------------------|-------------------------------------------|
|-------------------------------------------|-------------------------------5-----------|
|-0-0-0-0---0-----0-0-0-0-0---0---0---------|-0-0-0-0---0-----0-0-0-0-0---0-3-----------|
|-------------------------------------------|-------------------------------------------|
  . . . .   .     . . . . .   .   .           . . . .   .     . . . . .   .   
 
Bridge
 "doctor is in..."             the doctor is in..."
|---------------------------------|---------------------------------|
|---------------------------------|---------------------------------|
|---------------------------------|---------------------------------|
|-5---------------3---------------|-5---------------3-----------2---|
|-5---------------3---------------|-5---------------3-----------2---|
|-3---------------1---------------|-3---------------1-----------0---|
 
 
First Chorus:
 "the cure is screaming..."
|------------------------------------------------|
|------------------------------------------------|
|------------------------------------------------|
|-------2-----------2---------------3------3-----|
|-0-0-0-0---0-0-0-0-0---5-----5-----3------3-----|
|-----------------------3-----3-----1------1-----|
  . . .     . . . .
 
"cut out the cancers..."
|------------------------------------------------|
|------------------------------------------------|
|------------------------------------------------|
|-------2-----------2---7-----7-----5------------|
|-0-0-0-0---0-0-0-0-0---5-----5-----5------------|
|-----------------------------------3------------|
  . . .     . . . .  
 
 "barely breathing..."
|------------------------------------------------|
|------------------------------------------------|
|------------------------------------------------|
|-------2-----------2---------------3------3-----|
|-0-0-0-0---0-0-0-0-0---5-----5-----3------3-----|
|-----------------------3-----3-----1------1-----|
  . . .     . . . . 
 
 "but the rot will go...        doctor sin is in..."
|------------------------------------------------|
|------------------------------------------------|
|------------------------------------------------|
|-------7-----------7----------------------------|
|-5-5-5-5---5-5-5-5-5----1-1-1-1-1-1-1-1-1-1-1-1-|
|------------------------------------------------|
  . . .     . . . .      . . . . . . . . . . . .
 
 
back to Verse, then Bridge
 
[ Tab from: http://www.guitartabs.cc/tabs/l/lordi/dr_sin_is_in_tab_ver_2.html ]
Second Chorus:
 "the cure is screaming..."
|------------------------------------------------|
|------------------------------------------------|
|------------------------------------------------|
|-------2-----------2---------------3------3-----|
|-0-0-0-0---0-0-0-0-0---5-----5-----3------3-----|
|-----------------------3-----3-----1------1-----|
  . . .     . . . .
 
"cut out the cancers..."
|------------------------------------------------|
|------------------------------------------------|
|------------------------------------------------|
|-------2-----------2---7-----7-----5------------|
|-0-0-0-0---0-0-0-0-0---5-----5-----5------------|
|-----------------------------------3------------|
  . . .     . . . .  
 
 "barely breathing..."
|------------------------------------------------|
|------------------------------------------------|
|------------------------------------------------|
|-------2-----------2---------------3------3-----|
|-0-0-0-0---0-0-0-0-0---5-----5-----3------3-----|
|-----------------------3-----3-----1------1-----|
  . . .     . . . . 
 
"but the rot will go..." 
|------------------------------------------------|
|------------------------------------------------|
|------------------------------------------------|
|-------7-----------7----------------------------|
|-5-5-5-5---5-5-5-5-5----7-7-7-7-7-7-7-7-7-7-7-7-|
|------------------------------------------------|
  . . .     . . . .      . . . . . . . . . . . .
 
Repeat chorus
 
Second time ending:
 "but the rot will go...        doctor sin is in..."
|------------------------------------------------|
|------------------------------------------------|
|------------------------------------------------|
|-------7-----------7----------------------------|
|-5-5-5-5---5-5-5-5-5----1-1-1-1-1-1-1-1-1-1-1-1-|
|------------------------------------------------|
  . . .     . . . .      . . . . . . . . . . . .
 
 
Middle bit just before solo:
|-------------------------------------------------|
|-------------------------------------------------|
|-------------------------------------------------|
|-------------------------------------------------|
|-0-0-0-5---3-0-0-0-5---3-0-0-0-5---3-----3-1-----|
|-------------------------------------------------|
  . . .       . . .       . . .   
 
|-------------------------------------------------|
|-------------------------------------------------|
|-------------------------------------------------|
|------------------------/7-5---5-----------------|
|-0-0-0-5---3-0-0-0-5---3-----7---7-5-7-5---5-----|
|-----------------------------------------8---8-5-|
  . . .       . . .   
 
|-------------------------------------------------|
|-------------------------------------------------|
|-------------------------------------------------|
|-------------------------------------------------|
|-0-0-0-5---3-0-0-0-5---3-0-0-0-5---3-----3-1-----|
|-------------------------------------------------|
 
 
                   Second guitar begins solo with wah pedal
|-------------------------------------------------|
|-----------------------------5-------------------|
|-----------------------------7b9-------------9r7-|
|-----------------------------------slow bend-----|
|-------------------------------------------------|
|-------------------------------------------------|
|                                                 |
|-------------------------------------------------|
|-------------------------------------------------|
|-------------------------------------------------|
|-------------------------2---7---5---------------|
|-0-0-0-5---3-0-0-0-5---3-0---5---3---5---6---7---|
|-------------------------------------3---4---5---|
     
 
 
Solo (w/ wah pedal):
|-------------------------------------------------------------------------|
|-------------------------------------------------------------------------|
|-13-12-10----10-12-13-12-10----10-12-13-12-10----10-12-13-12-10----10-12-|
|----------12----------------12----------------12----------------12-------|
|-------------------------------------------------------------------------|
|-------------------------------------------------------------------------|
 
                                             pick scrape
|-----------------------------------------------------------------|
|--------------------------------------8--------------------------|
|-12b14-12b14-14r12-12b14-14-12b14-7b9---9r7--x\------------------|
|---------------------------------------------x\-------/x-/x-/x---| play dead notes while
|------------------------------------------------------/x-/x-/x---| flapping wah to make
|------------------------------------------------------/x-/x-/x---| that quacking sound
 
 
|-------15-------15-------15-----------------------------|
|-15b17----15b17----15b17------15b17r15-13-15~~~~~-13-15-|
|--------------------------------------------------------|
|--------------------------------------------------------|
|--------------------------------------------------------|
|--------------------------------------------------------|
 
 
|-------15-------15--------------------------------------|
|-15b17----15b17----15b17-15b17---15b17r15p13------------|
|---------------------------------------------14~~\------|
|--------------------------------------------------------|
|--------------------------------------------------------|
|--------------------------------------------------------|
 
 
|------------------------------------------------------------17\---|
|------------------------------------13-15b17-15-13-15b17r15-------|
|---5-7b9---9r7-5-7b9r7p5---------14-------------------------------|
|-7-----------------------5h7--------------------------------------|
|------------------------------------------------------------------|
|------------------------------------------------------------------|
 
 
Rhythm under solo:
|-------------------------------------------------|
|-------------------------------------------------|
|-------------------------------------------------|
|-------------3-----------------------3-----------|
|-3h5-5---5-5---5-5---5-5-3h5-5---5-5---5-5---5-5-|
|-------------------------------------------------|
 
 
|-------------------------------------------------|
|-------------------------------------------------|
|-------------------------------------------------|
|-------------3-----------------------3----rest---|
|-3h5-5---5-5---5-5---5-5-3h5-5---5-5---5---------|
|-------------------------------------------------|
 
 
|-------------------------------------------------|
|-------------------------------------------------|
|-------------------------------------------------| play twice
|-------------------------------------------------|
|-------------3-----------------------3-----------|
|-3h5-5---5-5---5-5---5-5-3h5-5---5-5---5-5---5-5-|
 
 
|---------------------------------|---------------------------------|
|---------------------------------|---------------------------------|
|---------------------------------|---------------------------------|
|-5---------------3---------------|-5---------------3-----------2---|
|-5---------------3---------------|-5---------------3-----------2---|
|-3---------------1---------------|-3---------------1-----------0---|
 
 
After solo:
|------------------------------------------------|
|------------------------------------------------|
|------------------------------------------------|
|------------------------------------------------|
|-0-0-0-0---0-----0-0-0-0-0---0---0--------------|
|------------------------------------------------|
  . . . .   .     . . . . .   .   . 
 
|------------------------------------------------|
|-----------------------------------3------------|
|-----------------------------------2---5--------|
|-----------------------------------0---5--------|
|-0-0-0-0---0-----0-0-0-0-0---0---0-----3--------|
|------------------------------------------------|
  . . . .   .     . . . . .   .   . 
 
Back to Bridge, Second Chorus
 
 
Finally:
|------------------------------------------------|
|------------------------------------------------|
|------------------------------------------------|
|------------------------------------------------|
|-0-0-0-0---0-----0-0-0-0-0----------------------|
|------------------------------------------------|
  . . . .   .     . . . . .   
 
End.