Get Heavy

Get Heavy

Lordi

 

Tabbed by Stephan Peters; webmaster@stephanpeters.de

 

 

Use dropped D Tuning and have fun! Pretty easy! ;)

 

 
/= slide up
\= slide down
x= mute note
h= hammer on
P.M = Palm Mute
b = bend string up 
r = release string
~ = don’t stop the chord
* = A.H
0 = P.M. Single Note
 
Intro: all “0” P.M!                                                          {P.M}
E|------------------------------------------------------------------
B|------------------------------------------------------------------
G|-3-3-3-0-0-0-0-0-0-3-3-0-0-0-0-0-0-0-6-5---3---5------------------
D|-3-3-3-0-0-0-0-0-0-3-3-0-0-0-0-0-0-0-6-5-0-3-0-5-0-1--1--xx3-3-3-3
A|---------------------------------------------------1--1--xx3-3-3-3
D|------------------------------------------------------------------
                                                                {P.M}
E|------------------------------------------------------------------
B|------------------------------------------------------------------
G|-3-3-3-0-0-0-0-0-0-3-3-0-0-0-0-0-0-0-6-5---3---5------------------
D|-3-3-3-0-0-0-0-0-0-3-3-0-0-0-0-0-0-0-6-5-0-3-0-5-0-1--1--xx3-3-3-3
A|---------------------------------------------------1--1--xx3-3-3-3
D|------------------------------------------------------------------
 
E|---------------------------------------------------------
B|---------------------------------------------------------
G|-3-3-3-0-0-0-0-0-0-3-3-0-0-0-0-0-0-0-6-5---3---5---------
D|-3-3-3-0-0-0-0-0-0-3-3-0-0-0-0-0-0-0-6-5-0-3-0-5-0-1~~~~-
A|---------------------------------------------------1~~~~1
D|---------------------------------------------------1~~~~1
 
Verse
                                         {    P.M    }
E|------------------------------------------------------------
B|------------------------------------------------------------
G|------------------------------------------------------------
D|-5-5--8-8-10-5-5--8-8-10-5-5--8--8-8-8-8-8-3--3---xx3-2-3-4-
A|-5-5--8-8-10-5-5--8-8-10-5-5--8--8-8-8-8-8-3--3---xx3-2-3-4-
D|-5-5--8-8-10-5-5--8-8-10-5-5--8--8-8-8-8-8-3--3---xx3-2-3-4-
 
                                          {    P.M    }
E|------------------------------------------------------------
B|------------------------------------------------------------
G|--------------------------------------------------3-3-3/5-5~
D|-5-5--8-8-10-5-5--8-8-10-5-5--8--8-8-8-8-8-3--3---3-3-3/5-5~
A|-5-5--8-8-10-5-5--8-8-10-5-5--8--8-8-8-8-8-3--3---1-1-1/3-3~
D|-5-5--8-8-10-5-5--8-8-10-5-5--8--8-8-8-8-8-3--3-------------
 
                                                    0 0   0 0   0                      
E|-----------------------------------------------------------------
B|-----------------------------------------------------------------
G|------------------------3-3/5---3--------------------------------
D|-5--3-0-3-5--0-3-0-8-5--3-3/5---3---3--3---3--3---1-1-1-1-1-1-1-1
A|-5--3-0-3-5--0-3-0-8-5--1-1/3---1---3--3---3--3---1-1-1-1-1-1-1-1
D|-5--3-0-3-5--0-3-0-8-5--------------3--3---3--3---1-1-1-1-1-1-1-1
 
E|---------------
B|---------------
G|---------------
D|-0~~-----------
A|-0~~/5-3-5-5-5-
D|-0~~-----------
 
Chorus
 
E|-------------------------------------------------------
B|-------------------------------------------------------
G|------------------------------------------------------3
D|-5-5-3-0-3-5--0-3-0-8-5--0-3-1--1-1-0-1-3--0-1-0-1-3--3
A|-5-5-3-0-3-5--0-3-0-8-5--0-3-1--1-1-0-1-3--0-1-0-1-3--1
D|-5-5-3-0-3-5--0-3-0-8-5--0-3-1--1-1-0-1-3--0-1-0-1-3---
 
E|-------------------------------------------------------
B|-------------------------------------------------------
G|------------------------------------------------------3
D|-5-5-3-0-3-5--0-3-0-8-5--0-3-1--1-1-0-1-3--0-1-0-1-3--3
A|-5-5-3-0-3-5--0-3-0-8-5--0-3-1--1-1-0-1-3--0-1-0-1-3--1
D|-5-5-3-0-3-5--0-3-0-8-5--0-3-1--1-1-0-1-3--0-1-0-1-3---
 
Bridge1
 
                                                                {P.M}
E|------------------------------------------------------------------
B|------------------------------------------------------------------
G|-3-3-3-0-0-0-0-0-0-3-3-0-0-0-0-0-0-0-6-5---3---5------------------
D|-3-3-3-0-0-0-0-0-0-3-3-0-0-0-0-0-0-0-6-5-0-3-0-5-0-1--1--xx3-3-3-3
A|---------------------------------------------------1--1--xx3-3-3-3
D|------------------------------------------------------------------
 
E|---------------------------------------------------------
B|---------------------------------------------------------
G|-3-3-3-0-0-0-0-0-0-3-3-0-0-0-0-0-0-0-6-5---3---5---------
D|-3-3-3-0-0-0-0-0-0-3-3-0-0-0-0-0-0-0-6-5-0-3-0-5-0-1~~~~-
A|---------------------------------------------------1~~~~1
D|---------------------------------------------------1~~~~1
 
Verse
                                         {    P.M    }
E|------------------------------------------------------------
B|------------------------------------------------------------
G|------------------------------------------------------------
D|-5-5--8-8-10-5-5--8-8-10-5-5--8--8-8-8-8-8-3--3---xx3-2-3-4-
A|-5-5--8-8-10-5-5--8-8-10-5-5--8--8-8-8-8-8-3--3---xx3-2-3-4-
D|-5-5--8-8-10-5-5--8-8-10-5-5--8--8-8-8-8-8-3--3---xx3-2-3-4-
 
                                         {    P.M    }
E|------------------------------------------------------------
B|------------------------------------------------------------
G|--------------------------------------------------3-3-3/5-5~
D|-5-5--8-8-10-5-5--8-8-10-5-5--8--8-8-8-8-8-3--3---3-3-3/5-5~
A|-5-5--8-8-10-5-5--8-8-10-5-5--8--8-8-8-8-8-3--3---1-1-1/3-3~
D|-5-5--8-8-10-5-5--8-8-10-5-5--8--8-8-8-8-8-3--3-------------
 
                                                    0 0   0 0   0                      
E|-----------------------------------------------------------------
B|-----------------------------------------------------------------
G|------------------------3-3/5---3--------------------------------
D|-5--3-0-3-5--0-3-0-8-5--3-3/5---3---3--3---3--3---1-1-1-1-1-1-1-1
A|-5--3-0-3-5--0-3-0-8-5--1-1/3---1---3--3---3--3---1-1-1-1-1-1-1-1
D|-5--3-0-3-5--0-3-0-8-5--------------3--3---3--3---1-1-1-1-1-1-1-1
 
E|---------------
B|---------------
G|---------------
D|-0~~-----------
A|-0~~/5-3-5-5-5-
D|-0~~-----------
 
Chorus
 
E|--------------------------------------------------------
B|--------------------------------------------------------
G|------------------------------------------------------3-
D|-5-5-3-0-3-5--0-3-0-8-5--0-3-1--1-1-0-1-3--0-1-0-1-3--3-
A|-5-5-3-0-3-5--0-3-0-8-5--0-3-1--1-1-0-1-3--0-1-0-1-3--1-
D|-5-5-3-0-3-5--0-3-0-8-5--0-3-1--1-1-0-1-3--0-1-0-1-3----
 
E|--------------------------------------------------------------
B|--------------------------------------------------------------
G|------------------------------------------------------3--3----
D|-5-5-3-0-3-5--0-3-0-8-5--0-3-1--1-1-0-1-3--0-1-0-1-3--3--3-0--
A|-5-5-3-0-3-5--0-3-0-8-5--0-3-1--1-1-0-1-3--0-1-0-1-3--1--1-0--
D|-5-5-3-0-3-5--0-3-0-8-5--0-3-1--1-1-0-1-3--0-1-0-1-3-------0--
 
  {    P. M   }
E|---------------------
B|---------------------
G|---------------------
D|-0-0-0-0-0-0--1~-3~-4~
A|-0-0-0-0-0-0--1~-3~-4~
D|-0-0-0-0-0-0--1~-3~-4~
 
Bridge 2
 Repeat 4 times, goto Intro, but play from the last 2 parts, then goto Chorus.
  The Chorus ends with the part, underneath this Bridge 2
E|---------
B|---------
G|---------
D|-5-3--2-1
A|-5-3--2-1
D|-5-3--2-1
 
Ending
 
E|-----------------------------------------------
B|-----------------------------------------------
G|------------3-------------3-------------3-3----
D|-0-1-0-1-3--3--0-1-0-1-3--3--0-1-0-1-3--3-3--5-5
A|-0-1-0-1-3--1--0-1-0-1-3--1--0-1-0-1-3--1-1--5-5
D|-0-1-0-1-3-----0-1-0-1-3-----0-1-0-1-3-------5-5