Hard Rock Hallelujah

The Arockalypse

Lordi

Tabbed by Stephan Peters; webmaster@stephanpeters.de

 

 

Use dropped D Tuning and have fun, it’s pretty easy!

 
/= slide up
\= slide down
x= mute note
h= hammer on
P.M = Palm Mute
b = bend string up
r = release string
 
 
Intro
     Repeat 2 times
E|-------------------------------------------------
H|-------------------------------------------------
G|-------------------------------------------------
D|-5-5--8-8--10-10--1--3-8--5-5--8-8--1-1--11--10-8
A|-5-5--8-8--10-10--1--3-8--5-5--8-8--1-1--11--10-8
D|-5-5--8-8--10-10--1--3-8--5-5--8-8--1-1--11--10-8
 
 
Bridge 1
                                                                              |2nd-Part
E|---------------------------------------------------------------------
H|---------------------------------------------------------------------
G|---------------------------------------------------------------------
D|-8-----8-7-----7-8-7---10---7---8-8-----8-7-----7-8-7--1--3--7-8-----
A|-8-x-x-8-7-x-x-7-8-7-x-10-x-7-x-8-8-x-x-8-7-x-x-7-8-7--1--3--7-8-x-x-
D|---------------------------------------------------------------------
 
E|----------------------------------------------------------
H|----------------------------------------------------------
G|----------------------------------------------------------
D|-8-7-----7-8-7---10---7---8-8-----8-7-----7-8-7--10--8--5-
A|-8-7-x-x-7-8-7-x-10-x-7-x-8-8-x-x-8-7-x-x-7-8-7--10--8--5-
D|-------------------------------------------------10--8--5-
 
The saints are…
 
E|--------------------------------------------------------------------
H|--------------------------------------------------------------------
G|--------------------------------------------------------------------
D|5----5-5----3-3----10-10---1--3--5-5----5-5----3-3----10-10---1--3--
A|5----5-5----3-3----10-10---1--3--5-5----5-5----3-3----10-10---1--3--
D|5----5-5----3-3----10-10---1--3--5-5----5-5----3-3----10-10---1--3--
 
Bridge 2
  All we need is...
 
E|---------------------------------------------------------------
H|---------------------------------------------------------------
G|---------------------------------------------------------------
D|-1-1--1----------5-5-----------3-3-------------1-1-------------
A|-1-1-----1--0-1--5-5--5--1-----3-3--0--0-1-3---1-1--1--1-0-----
D|-1-1-------------5-5--------7--3-3-----------3-1-1---------5-3-
   |P.M|              |P.M|        A.H |P.M|              |P.M|

 

E|-------------------------------------------------------
H|-------------------------------------------------------
G|-------------------------------------------------------
D|-1-1--1----------5-5-----------3-3-------------0--(1)-0
A|-1-1-----1--0-1--5-5--5--1-----3-3--0--0-1-3---0--(1)-0
D|-1-1-------------5-5--------7--3-3-----------3-0--(1)-0 
   |P.M|              |P.M|        A.H |P.M|
 
 
Chorus repeat 2 times
   After Chorus go back to Bridge 1 - 2nd Part| After Part 2 go to The true believers
E|--------------------------------------------
H|--------------------------------------------
G|--------------------------------------------
D|-5-5-5--3-3-3--1-1-1/8--8-8-8--10--6--1--3--(0)  
A|-5-5-5--3-3-3--1-1-1/8--8-8-8--10--6--1--3--(0) <- After the 2nd Strophe
D|-5-5-5--3-3-3--1-1-1/8--8-8-8--10--6--1--3--(0) 
   |P.M|   |P.M|    |P.M|     |P.M|
 
 
The true believers...
  After this part, go to Bridge 2 and play until the Chorus ends.
  Then play the Fill In
E|----------------------------------------------------------------------
H|----------------------------------------------------------------------
G|----------------------------------------------------------------------
D|5----5-5--xxx-9--3-3----10-10---1--3--5-5----5-5-xxx-9--3-3----10-10--
A|5----5-5--xxx-9--3-3----10-10---1--3--5-5----5-5-xxx-9--3-3----10-10--
D|5----5-5--xxx----3-3----10-10---1--3--5-5----5-5-xxx----3-3----10-10--
 
E|----
H|----
G|----
D|-1-3
A|-1-3
D|-1-3
 
E|----------------------------------------------------------------------
H|----------------------------------------------------------------------
G|----------------------------------------------------------------------
D|----------------------------------------------------------------------
A|----------------------------------------------------------------------
D|-0-h2-5-0-h2-0-h2--0-h2-5-0-h2-0-h2-5--0-h2-5-0-h2-0-h2--0-h2-5-0-h2--
 
E|----------------------------------------------------------------------
H|----------------------------------------------------------------------
G|----------------------------------------------------------------------
D|---------------------------------------------------------10--8--5-----
A|---------------------------------------------------------10--8--5-----
D|-3-h5-8-3-h5-3-h5--3-h5-8-3-h5-3-h5-8--3-h5-8-3-h5-3-h5--10--8--5-----
 
Fill In 2 
 …or go straight to hell : after going to hell, Just play the Chorus and the Intro, 
  The last chords are underneath this Fill Inn
E|---------------------------------------------------------------------
H|---------------------------------------------------------------------
G|-7---------------7---------------7-----7-----10----7---5-7---10-12-12
D|-7---------------7---------------7-----7-----10----7---5-7---10-12-12
A|-5---------------5---------------5-----5-----8-----5---3-5---8--10-10
D|-0-x-x-x-x-x-x-x-0-x-x-x-x-x-x-x-0-x-x-0-x-x---x-x---x-----0---------
 
E|------------------
H|------------------
G|------------------
D|-5-5--------------1-3-8--5-5--------------11-10-8--5-5
A|-5-5--------------1-3-8--5-5--------------11-10-8--5-5
D|-5-5--------------1-3-8--5-5--------------11-10-8--5-5
 
E|--------------------------------
H|--------------------------------
G|--------------------------------
D|--------------1-3-8--5-5-------0
A|--------------1-3-8--5-5-------0
D|--------------1-3-8--5-5-------0
 
End
 
E|---------------
H|---------------
G|---------------
D|-3-5h-8-3-5h--3-5h
A|-3-5h-8-3-5h--3-5h
D|-3-5h-8-3-5h--3-5h