It Snows In Hell

The Arockalypse

Lordi

 

Tabbed by Stephan Peters; webmaster@stephanpeters.de

 

 

Use dropped D Tuning and have fun!

You need a Wah-Wah for the solo, you need to hear it for yourself, where you push the pedal.

 

 
/= slide up
\= slide down
x= mute note
h= hammer on
P.M = Palm Mute
b = bend string up 
r = release string
~ = donít stop the chord
* = A.H 
 
The Verse is without guitar
 
Bridge:
E|----------------
B|----------------
G|----------------
D|-5---0---2-3---5
A|-5---0---2-3---5
D|-5---0---2-3---5
 
Chorus (play this part 2 times)
E|-----------------------------------
B|-----------------------------------
G|-----------------------------------
D|-7---2--3--2-5--xx-3-5--xx-3-5-----
A|-7---2--3--2-5--xx-3-5--xx-3-5-----
D|-7---2--3--2-5--xx-3-5--xx-3-5-----
 
Chorus end
E|--------------------------------------------------0-----
B|-------------------------------------6-5--------5-------
G|-----------------------------------5----------4---------
D|-7---2--3--2-5--xx-3-5--x-x-3-5--3~~~~~~~~--2~~~~~~~~-7~
A|-7---2--3--2-5--xx-3-5--x-x-3-5--3~~~~~~~~--2~~~~~~~~-7~
D|-7---2--3--2-5--xx-3-5--x-x-3-5--3~~~~~~~~--2~~~~~~~~-7~
 
 
Bridge                             { P.M  crescendo   }
E|-----1-------------1-----------------------
B|-5---3---11--------3---11------------------
G|-4---2---10--7-----2---10--5-5-5-5-5-5-5-5-
D|-2---0---8---7-2---0---8---5-5-5-5-5-5-5-5-
A|-2---0---8---5-2---0---8---3-3-3-3-3-3-3-3-
D|-2---0---8-----2---0---8-------------------
 
 
After the solo just play the Chorus as often you need it. The last chord as ďaĒ
Solo    {   A.H.  }                {   A.H.  }                        
E|--------------------------------------------------------------------
B|---------------------------------------------------------------1----
G|-7b9-b9-b9-b9-9r7-5----------------------------------------0-2---2-0
D|--------------------7--5-h7-6-7-6-5-6~-------------0---0-2----------
A|----------------------------------------/\-----0-3---3--------------
D|-----------------------------------------/\5-5----------------------
 

E|---------------------------10b12-b12~~---------------------------
B|-------------7b8--8r7-5-7~-------------8-h10-8---8-8b10r8--------
G|-5b7r5-2-0---7b8--8r7-5-7~---------------------9----------9-7\5--
D|-----------2----------------------------------------------------7
A|-----------------------------------------------------------------
D|-----------------------------------------------------------------

 

E|----------------------------------------------------------------
B|-------------------------------------------5--6-8-10--12--13-12~
G|-7b8r7-5-----------------------------4-5-7----------------------
D|---------7-5-h7-5----------------5-7----------------------------
A|------------------7-5-3-0-5b6~~---------------------------------
D|----------------------------------------------------------------
 
E|-------12----17-17~-17-15-----------------------------17-20-17----17~
B|-13-15----15--------------17-15-17--15----------17-20----------20----
G|---------------------------------------17-14-17~---------------------
D|---------------------------------------------------------------------
A|---------------------------------------------------------------------
D|---------------------------------------------------------------------
 
E|-20b22r20-17----17-20b22r20-17----17-20b22r20-17----17----17-----17-17
B|-------------20----------------20----------------20----20-----20------
G|----------------------------------------------------------------------
D|----------------------------------------------------------------------
A|----------------------------------------------------------------------
D|----------------------------------------------------------------------