Mr. Killjoy

Hard Rock Hallelujah Maxi

Lordi

             Tabbed by Stephan Peters; webmaster@stephanpeters.de

 

Use dropped D Tuning and have fun, itís pretty easy!

 
/= slide up
\= slide down
x= mute note
h= hammer on
b = bend string up
r = release string
Intro
 
E|----------|
B|----------|
G|-6b7~r6~~-|
D|-6b7~r6~~-|
A|----------|
D|----------|
 
 Intro Guitar 1 
E|-------------------------------------------------------
B|-------------------------------------------------------
G|-------------------------------------------------------
D|-7-5-7-10--3-3-3-5-2-5-7\---7-5-7-10--3-3-3-5-2-5-3--5-
A|-7-5-7-10--3-3-3-5-2-5-7\---7-5-7-10--3-3-3-5-2-5-3--5-
D|-7-5-7-10--3-3-3-5-2-5-7\---7-5-7-10--3-3-3-5-2-5-3--5-
 
E|--------------------------------------------2
B|--------------------------------------------3
G|--------------------------------------------2
D|-7-5-7-10--3-3-3-5-2-5-7\---7-5-7-10--3-3-3-0
A|-7-5-7-10--3-3-3-5-2-5-7\---7-5-7-10--3-3-3-0
D|-7-5-7-10--3-3-3-5-2-5-7\---7-5-7-10--3-3-3-0
 
Intro Guitar 2
 
E|--------------------------------------------------------
B|--------------------------------------------------------
G|-------5---------7-7-7-5-4------------5---7--7-5-----4--
D|-7-5-7-----7-5-7-----------7-5--7-5-7-------------7-----
A|--------------------------------------------------------
D|--------------------------------------------------------

            x x     x x x                  x x        

 
E|--------------------------------------------------------
B|--------------------------------------------------------
G|-------5---------7-7-7-5-4------------5-------7---------
D|-7-5-7-----7-5-7-----------7-5--7-5-7-----7-5-7---------
A|--------------------------------------------------------
D|--------------------------------------------------------

     x x     x x x  

 

Verse play 2 times

E|-----------------------------------------------
B|-----------------------------------------------

G|-----------------------------------------------
D|-5-5---5--5-0-0---3--5--7-5-7-10--3-3--5-2-5-3\
A|-5-5---5--5-0-0---3--5--7-5-7-10--3-3--5-2-5-3\
D|-5-5---5--5-0-0---3--5--7-5-7-10--3-3--5-2-5-3\

 

E|------------------------------------------
B|------------------------------------------
G|------------------------------------------
D|-3---3--3-5---5--5-0---0--0---------------
A|-3---3--3-5---5--5-0---0--0---------------
D|-3---3--3-5---5--5-0---0--0--2-3-6-7-9-7-6~

 

Chorus after Chorus go back to Intro

E|---------------------------------------------------
B|---------------------------------------------------
G|---------------------------------------------------
D|-7--7--5-5--3--3--5-5--7--7-----------3--3---------
A|-7--7--5-5--3--3--5-5--7--7----2-3-5--3--3----5-3-2
D|-7--7--5-5--3--3--5-5--7--7--5--------3--3--5------


 

E|-----------------------------------
B|-----------------------------------
G|-----------------------------------
D|-7--7--5-5--3--3--5-5--3-----------
A|-7--7--5-5--3--3--5-5--3------2-3-5
D|-7--7--5-5--3--3--5-5--3----5------

 

Solo

 

E|------------------------------------------------------------
B|------------------------------------------------------------
G|-----------------4------5------7-5-4-h5-------4-h5---4-h5---
D|-2-2-2---7--5-h7---5-h7---5-h7----------5--3-------5------7-
A|-2-2-2------------------------------------------------------
D|-2-2-2------------------------------------------------------

 

E|--------------
B|--------------
G|---4-5---4-5-7
D|-3-----3------
A|--------------
D|--------------

 

E|----------------------------------------------------
B|----------------------------------------------------
G|---------4------5------7-5-4-h5-------4-h5---4-h5---
D|-7--5-h7---5-h7---5-h7----------5--3-------5------7-
A|----------------------------------------------------
D|----------------------------------------------------

 

E|--------------
B|--------------
G|---4-5---4-5-7
D|-3-----3------
A|--------------
D|--------------

 

E|------------------------------------------------------
B|------------------------------------------------------
G|-----------7-------8-------10-8-7-h8------7-8---7-8---
D|-10--8-h10---8-h10---8-h10-----------8--6-----8-----10
A|------------------------------------------------------
D|------------------------------------------------------

 

E|---------------
B|---------------
G|---7-8---7-8-10
D|-6-----6-------
A|---------------
D|---------------

 

E|---------------------------------------------------------
B|---------------------------------------------------------

G|---------4------5------7-5-4-h5-------4-h5-4~~-----------
D|-7--5-h7---5-h7---5-h7----------5--3---------------------
A|----------------------------------------------------0~-2~\
D|----------------------------------------------3~/5~-3~-5~\

 

Bridge

E|-------------------------------------------------------------------
B|-------------------------------------------------------------------
G|-------------------------------------------------------------------
D|-7-7-7-7-7-7-7-7-5-5-5-5-5-5-5-5-2-2-2-2-2-2-2-2--3--4--5---5--6--7
A|-x-x-x-x-x-x-x-x-x-x-x-x-x-x-x-x-x-x-x-x-x-x-x-x--3--4--5---5--6--7
D|-7-7-7-7-7-7-7-7-5-5-5-5-5-5-5-5-2-2-2-2-2-2-2-2--3--4--5---5--6--7

 

E|---------
B|---------
G|---------
D|-8--9--10\
A|-8--9--10\
D|-8--9--10\

 

Chorus 2

E|----------------------------------
B|----------------------------------

G|----------------------------------
D|-10--10-----------6-6-6-----------
A|-10--10----5-6-8--6-6-6----8-6-5--
D|-10--10--8--------6-6-6--8--------

 

E|----------------------------------------
B|----------------------------------------

G|----------------------------------------
D|-10---10--8-8--6---6--8-8--6------------
A|-10---10--8-8--6---6--8-8--6----5-6-8---
D|-10---10--8-8--6---6--8-8--6--8---------

 

E|-------------------------------------------------------------
B|-------------------------------------------------------------

G|-------------------------------------------------------------
D|-10---10--8-8--6---6--8-8--10---10-----------6-6-6-----------
A|-10---10--8-8--6---6--8-8--10---10----5-6-8--6-6-6----8-6-5--
D|-10---10--8-8--6---6--8-8--10---10--8--------6-6-6--8--------

 

E|--------------------------------------------
B|--------------------------------------------

G|--------------------------------------------
D|-10---10--8-8--6---6--8-8--6-----------5-5-5
A|-10---10--8-8--6---6--8-8--6----5-6-8--5-5-5
D|-10---10--8-8--6---6--8-8--6--8--------5-5-5

 

Outro Guitar 1

E|---------------------------
B|---------------------------
G|---------------------------
D|7-5-7-10--3-3-3-5-2-5-7\---
A|7-5-7-10--3-3-3-5-2-5-7\---

D|7-5-7-10--3-3-3-5-2-5-7\---

 

Outro Guitar 2

E|--------------------

B|--------------------
G|-------5--7--7-5----
D|-7-5-7-----------7~\
A|--------------------
D|--------------------