Lordi - My Heaven is your Hell
Tabed by Josh "Unholy_Ghost" Jeliczek

enjoy, its pretty easy!



Intro

D||---------------------------------------------------------------------------|
A||---------------------------------------------------------------------------|
F||-----------5--4------------------------------------------------------------|
C||-----------3--2------------------------------------------------------------|
G||--4--7--4--------4--7--4--4-4--2-------------------------------------------|
C||--4--7--4--------4--7--4--4-4--2-------------------------------------------| x3



D||---------------------------------------------------------------------------|
A||---------------------------------------------------------------------------|
F||-----------5--4------------------------------------------------------------|
C||-----------3--2------------------------------------------------------------|
G||--4--7--4--------4--7--4---4--4--4--4--4---4--2\0--------------------------|
C||--4--7--4--------4--7--4---4--4--4--4--4---4--2\0--------------------------|


Verse

D||---------------------------------------------------------------------------|
A||---------------------------------------------------------------------------|
F||---------------------------------------------------------------------------|
C||--9\7/9---4---7\5/7---9--7--4--7/9-----------------------------------------|
G||--7\5/7---2---7\5/7---7--5--2--5/7--7--------------------------------------|
C||------------------------------------7--------------------------------------|



D||---------------------------------------------------------------------------|
A||---------------------------------------------------------------------------|
F||---------------------------------------------------------------------------|
C||--9\7/9---4---7\5/7---9--7--4--7/9-----------------------------------------|
G||--7\5/7---2---7\5/7---7--5--2--5/7--5--------------------------------------|
C||------------------------------------5--------------------------------------|



D||---------------------------------------------------------------------------|
A||---------------------------------------------------------------------------|
F||---------------------------------------------------------------------------|
C||--5--5-5--5--5--5-5--5--5-5--5-5---7--7-7--7--7--7-------4-----------------|
G||--5--5-5--5--5--5-5--5--5-5--5-5---7--7-7--7--7--7-----4-----4--5h4--------|
C||-----------------------------------------------------4-----4---------------|
* * * * * * * * *

Chorus

D||---------------------------------------------------------------------------|
A||---------------------------------------------------------------------------|
F||---------------------------------------------------------------------------|
C||--4--4---4--2--4--4-------4/7\4----------------------5--4--2--4------------|
G||--2--2---2--0--2--2--2-2--2/5\2----2--2--2--2--2--2------------------------|
C||-----------------------------------2--2--2--2--2--2------------------------|
* * *


D||---------------------------------------------------------------------------|
A||---------------------------------------------------------------------------|
F||---------------------------------------------------------------------------|
C||--2---4--5--2-------------------------------4------------------------------|
G||--0---2--3--0---5---7--7-7--7--7-7--7-----4-----4--5-----------------------|
C||----------------5---7--7-7--7--7-7--7---4-----4----------------------------|
* * * *


D||---------------------------------------------------------------------------|
A||---------------------------------------------------------------------------|
F||---------------------------------------------------------------------------|
C||--4--4---4--2--4--4-------4/7\4----------------------5--4--2--4------------|
G||--2--2---2--0--2--2--2-2--2/5\2----2--2--2--2--2--2------------------------|
C||-----------------------------------2--2--2--2--2--2------------------------|
* * *


D||---------------------------------------------------------------------------|
A||---------------------------------------------------------------------------|
F||---------------------------------------------------------------------------|
C||--2---4--5--2---------------------------4-----4/9\0------------------------|
G||--0---2--3--0---5---7--7-7--7--7-7--7---2-----2/7\0------------------------|
C||----------------5---7--7-7--7--7-7--7--------------------------------------|
* * * *

Bridge

D||---------------------------------------------------------------------------|
A||---------------------------------------------------------------------------|
F||-----6-----7---------------------------------------------------------------|
C||-----4-----5---------------------------------------------------------------|
G||--4-----4-----4--6--7--4--4---5---7----------------------------------------|
C||--4-----4-----4--6--7--4--4---5---9----------------------------------------|



D||---------------------------------------------------------------------------|
A||---------------------------------------------------------------------------|
F||---------------------------------------------------------------------------|
C||---------------------------------------------------------------------------|
G||--4--4--4-4--4-4-4-4---4--4--4-4--4-4-4-4---7--7--7-7--7-7-7-7-------------|
C||--4--4--4-4--4-4-4-4---4--4--4-4--4-4-4-4---5--5--5-5--5-5-5-5-------------|
* * * * * * * * * * * * * * *


D||---------------------------------------------------------------------------|
A||---------------------------------------------------------------------------|
F||---------------------------------------------------------------------------|
C||--9-9-9-9--10-10-----------------------------------------------------------|
G||--7-7-7-7---8--8--4--4--4-4--4-4-4-4--4--4--4-4--4-4-4-4--7-7--7-7--7-7-7-7|
C||------------------4--4--4-4--4-4-4-4--4--4--4-4--4-4-4-4--5-5--5-5--5-5-5-5|
* * * * * * * * * * * * * * * * *

Verse

D||---------------------------------------------------------------------------|
A||---------------------------------------------------------------------------|
F||---------------------------------------------------------------------------|
C||--9\7/9---4---7\5/7---9--7--4--7/9-----------------------------------------|
G||--7\5/7---2---7\5/7---7--5--2--5/7--7--------------------------------------|
C||------------------------------------7--------------------------------------|



D||---------------------------------------------------------------------------|
A||---------------------------------------------------------------------------|
F||---------------------------------------------------------------------------|
C||--9\7/9---4---7\5/7---9--7--4--7/9-----------------------------------------|
G||--7\5/7---2---7\5/7---7--5--2--5/7--5--------------------------------------|
C||------------------------------------5--------------------------------------|



D||---------------------------------------------------------------------------|
A||---------------------------------------------------------------------------|
F||---------------------------------------------------------------------------|
C||--5--5-5--5--5--5-5--5--5-5--5-5---7--7-7--7--7--7-------4-----------------|
G||--5--5-5--5--5--5-5--5--5-5--5-5---7--7-7--7--7--7-----4-----4--5h4--------|
C||-----------------------------------------------------4-----4---------------|
* * * * * * * * *

Chorus

D||---------------------------------------------------------------------------|
A||---------------------------------------------------------------------------|
F||---------------------------------------------------------------------------|
C||--4--4---4--2--4--4-------4/7\4----------------------5--4--2--4------------|
G||--2--2---2--0--2--2--2-2--2/5\2----2--2--2--2--2--2------------------------|
C||-----------------------------------2--2--2--2--2--2------------------------|
* * *


D||---------------------------------------------------------------------------|
A||---------------------------------------------------------------------------|
F||---------------------------------------------------------------------------|
C||--2---4--5--2-------------------------------4------------------------------|
G||--0---2--3--0---5---7--7-7--7--7-7--7-----4-----4--5-----------------------|
C||----------------5---7--7-7--7--7-7--7---4-----4----------------------------|
* * * *


D||---------------------------------------------------------------------------|
A||---------------------------------------------------------------------------|
F||---------------------------------------------------------------------------|
C||--4--4---4--2--4--4-------4/7\4----------------------5--4--2--4------------|
G||--2--2---2--0--2--2--2-2--2/5\2----2--2--2--2--2--2------------------------|
C||-----------------------------------2--2--2--2--2--2------------------------|
* * *


D||---------------------------------------------------------------------------|
A||---------------------------------------------------------------------------|
F||---------------------------------------------------------------------------|
C||--2---4--5--2-------------------------------------------9--10--11----------|
G||--0---2--3--0---5---7--7-7--7--7-7--7---9---7---6---5---7---8---9----------|
C||----------------5---7--7-7--7--7-7--7---9---7---6---5----------------------|
* * * *

Solo

D||---------------------------------------------------------------------------|
A||-----5--5--5(6)--5(6)--5--5--5(6)--5(6)---------13--11--10--11--10---------|
F||--2-----------------------------------------------------------------9--10--|
C||---------------------------------------------------------------------------|
G||---------------------------------------------------------------------------|
C||---------------------------------------------------------------------------|



D||---------------------------------------------------------------------------|
A||--14--12--14--12--15*---12--14--15--14--12--14\0---------------------------|
F||---------------------------------------------------------------------------|
C||---------------------------------------------------------------------------|
G||---------------------------------------------------------------------------|
C||---------------------------------------------------------------------------|



D||---------------------------------------------------------------------------|
A||--19-17-16-14--17-16-14-12--16-14-12-11--14-12-11-9--12-11-9-7--11-9-7-6---|
F||---------------------------------------------------------------------------|
C||---------------------------------------------------------------------------|
G||---------------------------------------------------------------------------|
C||---------------------------------------------------------------------------|



D||---------------------------------------------------------------------------|
A||--9--10--12--14--19~-------------------------------------------------------|
F||---------------------------------------------------------------------------|
C||---------------------------------------------------------------------------|
G||---------------------------------------------------------------------------|
C||---------------------------------------------------------------------------|



Chorus

D||---------------------------------------------------------------------------|
A||---------------------------------------------------------------------------|
F||---------------------------------------------------------------------------|
C||-----------4--------------4/7\4----------------------5--4--2--4------------|
G||-----------2--------------2/5\2----2--2--2--2--2--2------------------------|
C||-----------------------------------2--2--2--2--2--2------------------------|
*


D||---------------------------------------------------------------------------|
A||---------------------------------------------------------------------------|
F||---------------------------------------------------------------------------|
C||--2---4--5--2-------------------------------4------------------------------|
G||--0---2--3--0---5---2--2-2--2--2-2--2-----4-----4--5-----------------------|
C||----------------5---2--2-2--2--2-2--2---4-----4----------------------------|
* * * *


D||---------------------------------------------------------------------------|
A||---------------------------------------------------------------------------|
F||---------------------------------------------------------------------------|
C||--4--4---4--2--4--4-------4/7\4----------------------5--4--2--4------------|
G||--2--2---2--0--2--2--2-2--2/5\2----2--2--2--2--2--2------------------------|
C||-----------------------------------2--2--2--2--2--2------------------------|
* * *


D||---------------------------------------------------------------------------|
A||---------------------------------------------------------------------------|
F||---------------------------------------------------------------------------|
C||--2---4--5--2--------------------------------------------------------------|
G||--0---2--3--0---5---2--2-2--2--2-2--2----2--4--2--4--2---------------------|
C||----------------5---2--2-2--2--2-2--2----0--2--0--2--0---------------------|
* * * *


D||---------------------------------------------------------------------------|
A||---------------------------------------------------------------------------|
F||---------------------------------------------------------------------------|
C||--4--4---4--2--4--4-------4/7\4----------------------5--4--2--4------------|
G||--2--2---2--0--2--2--2-2--2/5\2----2--2--2--2--2--2------------------------|
C||-----------------------------------2--2--2--2--2--2------------------------|
* * *


D||---------------------------------------------------------------------------|
A||---------------------------------------------------------------------------|
F||---------------------------------------------------------------------------|
C||--2---4--5--2---------------------------2--4-------------------------------|
G||--0---2--3--0---5---2--2-2--2--2-2--2---0--2-------------------------------|
C||----------------5---2--2-2--2--2-2--2--------------------------------------|
* * * *




D||---------------------------------------------------------------------------||
A||---------------------------------------------------------------------------||
F||------------5--4----------------------------------5--4---------------------||
C||--4--7--4---3--2---4--7---7--7--7--2----4--7--4---3--2---4---7--4--4--4--4-||
G||--2--5--2----------2--5---2--2--2--0----2--5--2----------2---5--2--2--2--2-||
C||---------------------------------------------------------------------------||