The Night of the Loving Dead

The Arockalypse

Lordi

Tabbed by Stephan Peters; webmaster@stephanpeters.de

 

 

Use dropped D Tuning and have fun, its pretty easy!

 
/= slide up
\= slide down
x= mute note
h= hammer on
P.M = Palm Mute
b = bend string up
r = release string
 
 
Intro play 4 times     P.M every 0 at the D-String
E|--------------------------------------------------------------------
H|-2----2----5-5-5----5----7----7/9--2----2----5-5-5----5----5\4\2-0-1
G|-2----2----5-4-3----3----5----5/7--2----2----5-4-3----3----5\4\2-0-1
D|---00---00-------00---00---00--------00---00-------00---00----------
A|--------------------------------------------------------------------
D|--------------------------------------------------------------------
 
Bridge
 
E|------------------------------
H|------------------------------
G|------------------------------
D|-2---10---5--0--2-2-2-2-2--12\
A|-2---10---5--0--2-2-2-2-2--10\
D|-2---10---5--0--2-2-2-2-2-----
 
Chorus   after Chorus go back to Intro
  1st Part                           {   A.H  }      {    A.H  }    | 2nd Part      
E|----------------------------------------------------- --------------
H|----------------------------------------------------- --------------
G|----------------------------------------------------- --------------
D|-7---7--5-7--2-3--2-3--5--3--3---------5------------- 7---7--5-7--2-3
A|-7---7--5-7--2-3--2-3--5--3----3-2-0---5--2--2-3-5--- 7---7--5-7--2-3
D|-7---7--5-7--2-3--2-3--5--3----------3-5-----------5- 7---7--5-7--2-3
              {   A.H }
E|-----------------------
H|-----------------------
G|-----------------------
D|-2-3--5--3--3---------5
A|-2-3--5--3----3-2-0---5
D|-2-3--5--3----------3-5
 
 
 
Bridge 2
 
E|--------------------------
H|-5----5---7----9---10-----
G|-4--------5----7---8------
D|-2--------3----5---6---14~
A|-2--------3----5---6------
D|-2------0-3----5---6------
 
Solo   after Solo, go to Chorus and repeat the first Part 3 times then go on to the 2nd 
       Part. The end is just the Intro with repeating the 4 last notes 3 times.  
 
E|----------------------------------------------------------------------
H|----------------------------------------------------------------------
G|-14-14--12-12---------------------------14-14--12-12------------------
D|---------------14-14--13-12-10-12-10------------------14-14--13-12-10-
A|-------------------------------------12-------------------------------
D|----------------------------------------------------------------------
  
E|-----------------------------------------------------------------
H|-----13-13-----------------------------15-13-------13-12---------
G|------------14-14--12-12-----12-13-14--------14----------14-12-13
D|-12~----------------------14-------------------------------------
A|-----------------------------------------------------------------
D|-----------------------------------------------------------------
 
E|------------------------15b17r15-12-12~-10------10-------------
H|-15b17-b17-b17-17r15-12--------------------1212----10b12r10----
G|------------------------------------------------------------12-
D|---------------------------------------------------------------
A|---------------------------------------------------------------
D|---------------------------------------------------------------
 
E|-----15-15------15-15-----15~
H|-17---------17---------17----
G|-----------------------------
D|-----------------------------
A|-----------------------------
D|-----------------------------