MonsterDiscoHell.Com
http://www.monsterdiscohell.com
-----------------------------------------
(c) Lordi | visit http://www.lordi.org
-----------------------------------------
Artist: Lordi
Title: Not the Nicest Guy
Album: Get Heavy
Year: 2002
-----------------------------------------
 


Intro/S?keist?t
|---------------------------------------------------------------|
|-----------------------------------------------------6---------|
|------------------------------------------------5------5-------|
|-----7--------------7----------------3----------3--------3-----|
|--------------------------------------------3---5----------5---|
|-3s5---3-5----0-3s5---3-5----0-3---1---0--1--------------------|



Ennen kertos?ett?
|-------------------------------------------------------------------|
|-------------------------------------------------------------------|
|---5---------7--------3----------------5---------------------------|
|---5----5----7--7-----3---3?-3-3-3-----5---5----3-333-(4X)---------|
|---3----5----5--7-----1---3?-3-3-3-----3---5----0h111?-------------|
|--------3-------5---------1?-1-1-1---------3-----------------------|
p.m..

|----------------------------|
|----------------------------|
|---2-2---5---7-\------------|
|---2-2---5---7--------------|
|---0-0---3---5--------------|
|----------------------------|



Kertos?e
|--------------------------------------------------------------|
|--6-6-5--5--3--5-6---555--6-6-5------------------------3------|
|--5-5-5--5--2--5-5---555--5-5-5---2-2------------------2------|
|--0-0-0--0--0--0-0---555--5?5-5---2-2-------2h3p2h0----0------|
|---------------------333?-3-3-3---0-0?3h0-----------3---------|
|-----------------------?--------------------------------------|



|------------------------------------------------------------|
|---6-6-5----------------------------------------------------|
|---5-5-5--3--------------5----------------5-----------------|
|---0-0-0--5----------5-------5--------5-------5\----0-------|
|----------5------3-3---3---3------3-3---3---3---------------|
|------------------------------------------------------------|



V?liosa
|------------------------------------------------------------|
|------------------------------------------------------------|
|-----------4--5--------------------------4--5---------------|
|-----------5--5--------------------------5--5---------------|
|-----------0--0---2h3p2-----0------------0--5---2h3p2-----0-|
|-0-3-5-------------------3------0-3-5------------------3----|

|---------------------------------------------------------------|
|---------------------------------------------------------------|
|-----------4--5--------------------------4--5----7-5---4--5----|
|-----------5--5--------------------------5--5----7-5---5--5--3-|
|------------------2h3p2-----0------------0--5----------------3-|
|-0-3-1-------------------3------0-3-5------------------------1-|


Soolo
|---------------------------5--5----5-5------5-------5--5----5-5------5-|
|---------------------------5--5----5-5------5-------5--5----5-5------5-|
|------5--7--7b--5--7---7b-------7b------7b------7b-------7b------7b----|
|-/7--------------------------------------------------------------------|
|-----------------------------------------------------------------------|
|-----------------------------------------------------------------------|

|-5--5--5--5------------------------------------------------------------|
|-5--5--5--5---8--7--5---6-6-5-6-5------------8-----10----12----13------|
|-------7b-----8--7--5---5-5-5-5-5--7--5b-----10b---12b---14b---15b-----|
|-----------------------------------------------------------------------|
|-----------------------------------------------------------------------|
|-----------------------------------------------------------------------|

|--------17--------17--------17--------17--------17--------17--17---17--|
|-----17--------17--------17--------17--------17--------17-----20b--20b-|
|-19b-------19b-------19b-------19b-------19b-------19b-----------------|
|-----------------------------------------------------------------------|
|-----------------------------------------------------------------------|
|-----------------------------------------------------------------------|