MonsterDiscoHell.Com
http://www.monsterdiscohell.com
-----------------------------------------
(c) Lordi | visit http://www.lordi.org
-----------------------------------------
Artist: Lordi
Title: Rock The Hell Outta You
Album: Get Heavy
Year: 2002
-----------------------------------------


Intro/P??riffi
|----------------------------|-----------|
|----------------------------|-----------|
|----------------------------|-----------|
|-------------0------0h2h3p2-|--2--3---4-|
|-2--2-----------2-----------|--2--3---4-|
|------0h1h2-----------------|--0--1---2-|


Ennen s?keist??
|-----------------------------------|
|-----------------------------------|
|-----------------------------------|
|-9-9---9-9---9-9---9-9-x--8--------|
|-9-9---9-9---9-9---9-9-x--8--------|
|-7-7---7-7---7-7---7-7-x--6--------|


S?keist?(t), kuuntele rytmitys itse

G#5
come shove it in

G#5 F#5 E5
good old dis-order

G#5 F#5 E5 C#5
some accidental homicides

G#5 F#5 E5 C#5
I've been dead in the water

G#5 E5
girlie poser

F#5 E5 C#5
slam you naked on the floor

G#5 E5 F#5
what do we have in store for you


Kertos?e
|---------------------------------------------------------|
|---------------------------------------------------------|
|----------------------------------------------7--7--7--7-|
|-9--9--7--9/----5--5--4--5/----7--7--5--7/----7--7--7--7-|
|-9--9--7--9/----5--5--4--5/----7--7--5--7/----5--5--4--4-|
|-7--7--5--7/----3--3--2--3/----5--5--3--5/---------------|



Toisen kertos?keen j?lkeen:

D5 A5 D5 A5 D5 E5
rock the - rock the hell out

D5 A5 D5 A5 D5 E5
rock the - rock the hell out

D5 A5 D5 A5 D5 H5
rock the - rock the hell out

D|----9----8----7----6-----5----|
A|------------------------------|
E|--7----6----5----4----3----3--|


F#5 H5
entracing jungle evil

F#5 G5
ramming in the voodoo

F#5 H5
we exorcise your angels

G5 A5 H5
cast the hellbeast into you


Loppu
|------------------|
|------------------|
|----------------4-|
|-------0h2h3p0--4-|
|-2--2-----------2-|
|----------------2-|