Supermonstars

The Arockalypse

Lordi

             Tabbed by Stephan Peters; webmaster@stephanpeters.de

 

Use dropped D Tuning and have fun, itís pretty easy!

 
/= slide up
\= slide down
x= mute note
h= hammer on
P.M = Palm Mute
b = bend string up
r = release string
Intro
 
E|-------------------------------------------------------------
B|----------------------------7--------------------------------
G|-------------7--------------7--------------------------------
D|-2--------5--7--2--------5--5--2----7-2----5-2--------5--0--7
A|-2--------5--5--2--------5--5--2----7-2----5-2--------5--0--7
D|-2--------5--0--2--------5--0--2----7-2----5-2--------5--0--7
 
 
Pre-Verse play 3 times
 
E|---------------------------------
B|---------------------------------
G|---------------------------------
D|-x-3-2-x-0-2-x-3-2-x-3-2-x-0-3-2-
A|-x-3-2-x-0-2-x-3-2-x-3-2-x-0-3-2-
D|-x-3-2-x-0-2-x-3-2-x-3-2-x-0-3-2-
 
Verse play 2 times
 
E|----------------------------------------------------------------
B|----------------------------------------------------------------
G|-------------------------------4-5-5-5-5-5----------------------
D|-2-2-2-2-2-2-2-2-2-2-2-2-2-2-2-4-5-5-5-5-5-0-x-0-x-x-3-2-x-0-3-2
A|-2-2-2-2-2-2-2-2-2-2-2-2-2-2-2-2-3-3-3-3-3-0-x-0-x-x-3-2-x-0-3-2
D|-2-2-2-2-2-2-2-2-2-2-2-2-2-2-2-------------0-x-0-x-x-3-2-x-0-3-2
     x x x x x x   x x x x x x x     x x x x    
 
Pre-Chorus
 
E|----------------------------------------------------------------
B|----------------------------------------------------------------
G|----------------------------------------------------------------
D|-3-3-3-3-5-5-5-5-7-7-7-7-5-5-5-5-3-3-3-3-5-5-5-5-7-7-7-7-7-7-7-7
A|-3-3-3-3-5-5-5-5-7-7-7-7-5-5-5-5-3-3-3-3-5-5-5-5-7-7-7-7-7-7-7-7
D|-3-3-3-3-5-5-5-5-7-7-7-7-5-5-5-5-3-3-3-3-5-5-5-5-7-7-7-7-7-7-7-7
   X x x x x x x x x x x x x x x x x x x x x x x x x     x     x  
 
E|--------------------------------------------------
B|--------------------------------------------------
G|--------------------------------------------------
D|-3-3-3-3-5-5-5-5-7-7-7-7-5-5-5-5-3-3-3-3-2-2-2-2-5~
A|-3-3-3-3-5-5-5-5-7-7-7-7-5-5-5-5-3-3-3-3-2-2-2-2-5~
D|-3-3-3-3-5-5-5-5-7-7-7-7-5-5-5-5-3-3-3-3-2-2-2-2-5~
   x x x x x x x x x x x x x x x x x  slightly release palm
 
Chorus
  After Chorus, return to Pre-Verse, but play it just 2 times 
E|------------------------------------------------------
B|------------------------------------------------------
G|-5--3-8---8--------------5-5-5-5-8-8-8-8--------------
D|-5--3-8---8-8-x-8-8-6----5-5-5-5-8-8-8-8-8-8-8-8-6--8-
A|-3--1-6-x-6-8-x-8-8-6----3-3-3-3-6-6-6-6-8-8-8-8-6--8-
D|------------8-x-8-8-6--------------------8-8-8-8-6--8-
                           x x x x x x x x x x x x
 
E|---------------------------------------------------------
B|---------------------------------------------------------
G|-5--3-8---8--------------5-5-5-5-3-3-3-3-----------------
D|-5--3-8---8-8-x-8-8-6----5-5-5-5-3-3-3-3-6-6-6-6-6-666666
A|-3--1-6-x-6-8-x-8-8-6----3-3-3-3-1-1-1-1-6-6-6-6-6-666666
D|------------8-x-8-8-6--------------------6-6-6-6-6-666666
                           x x x x x x x x x     x
 
Solo
 
E|---------10b12---------10b12-12---------------------------------
B|-10b12---------10b12--------------------------12--15b17-17r15-12
G|---------------------------------9~--11-12----------------------
D|----------------------------------------------------------------
A|----------------------------------------------------------------
D|----------------------------------------------------------------
 
E|------------------------------------------------------------------
B|-15-12-------15b17-17r15-12-15-12-------15b17-17r15-12-15-12------
G|-------14-12----------------------14-12----------------------14-12
D|------------------------------------------------------------------
A|------------------------------------------------------------------
D|------------------------------------------------------------------
 
E|-----------------------------15b17-17r15-12-15-12-------
B|-15b17-17r15-12-15-12-----------------------------15-12-
G|-----------------------14-12----------------------------
D|--------------------------------------------------------
A|--------------------------------------------------------
D|--------------------------------------------------------
 
 
E|-15b17-17r15-12-15-12----------------
B|----------------------15-12--15b17~~~
G|-------------------------------------
D|-------------------------------------
A|-------------------------------------
D|-------------------------------------
 
 
VERY FAST!!!                               
E|--------------------------------------------------------------------
B|--------------------------------------------------------------------
G|--------------------------------------------------------------------
D|--------------------------------------------------------------------
A|-0-0-0-0--3--0-0-0-0--5--0-0--2-h3--0-0-0-0--3--0-0-0-0--5--00--2-h3
D|--------------------------------------------------------------------
 
E|--------------------------------12-----------------15--------15-20-21~
B|-------------13-------15----------------13~~12-h13----12-h13----------
G|-14-14-14-14----14-14----14-14-----14---------------------------------
D|----------------------------------------------------------------------
A|----------------------------------------------------------------------
D|----------------------------------------------------------------------
                       

After Solo play the Chorus and the Pre-VerseÖ Thatís the end ;)