Who’s Your Daddy ?

The Arockalypse

Lordi

             Tabbed by Stephan Peters; webmaster@stephanpeters.de

 

Use dropped D Tuning and have fun, it’s pretty easy!

 
/= slide up
\= slide down
x= mute note
h= hammer on
P.M = Palm Mute
b = bend string up
r = release string
Intro
E|----------------------------------------------------------------------
H|----------------------------------------------------------------------
G|----------------------------------------------------------------------
D|-8-7-7-7-8-7-7-7-7--8-7-7-7-8-7-7-7-5-7-8--8-7-7-7-8-7-7-7-7--8-7-7-7-
A|-6-7-7-7-6-7-7-7-5--6-7-7-7-6-7-7-7-3-5-6--6-7-7-7-6-7-7-7-5--6-7-7-7-
D|---7-7-7---7-7-7------7-7-7---7-7-7----------7-7-7---7-7-7------7-7-7-
 
E|----------------------------------------------------------------------
H|----------------------------------------------------------------------
G|-----5-7---9-9-9-9--9-9-9--9------------------------------------------
D|-7---5-7-8-7-7-7-7-87-7-7--7-7-7--8-7-7-7-7-8-7-7-7-7-5-7-8--8-7-7-7-7
A|-5---3-5-6---------6------- -5-5--6-7-7-7-7-6-7-7-7-7-3-5-6--6-7-7-7-7
D|------------------------------------7-7-7-7---7-7-7-7----------7-7-7-7
 
Intro Part 2
E|---------------------------------------
H|---------------------------------------
G|---------------------------------------
D|-8-7-7-7-7-7-7--8-7-7-7-7-8-7-7-7-7-7-7
A|-6-7-7-7-7-5-5--6-7-7-7-7-6-7-7-7-7-5-5
D|---7-7-7-7--------7-7-7-7---7-7-7-7----
 
 
All the bixon stand in line…
 
E|----------------------------------------------------------------------
H|-----------------------------------------------------------5------5---
G|-----------------------------------------------------------5------5---
D|---7-10-7-13--12--10--x-x-5--x-x-5--7-10-7-13--12--10--x-x-5--x-x-5---
A|---7-10-7-13--12--10--x-x-5--x-x-5--7-10-7-13--12--10--x-x-7--x-x-7---
D|---7-10-7-13--12--10--x-x-5--x-x-5--7-10-7-13--12--10--x-x-7--x-x-7---
   |P.M|                            |P.M|  
 
E|----------------------------------------------------------------------
H|----------------------6-----------------------------------------------
G|----------------------5-----------------------------------------------
D|-7-10-7-13--12--10-3--3--7-10-7-13--12--10-7-10-7-13--12--10--5-5-5-5-
A|-7-10-7-13--12--10-3--3--7-10-7-13--12--10-7-10-7-13--12--10--5-5-5-5-
D|-7-10-7-13--12--10-3--3--7-10-7-13--12--10-7-10-7-13--12--10--5-5-5-5-
 |P.M|                   |P.M|             |P.M| 
 
E|------------------
H|------------------
G|------------------
D|5--3-3-3---2-2-5-5
A|5--3-3-3---2-2-5-5
D|5--3-3-3---2-2-5-5
 
Chorus, after Chorus, repeat from Intro Part 2, then go on to Bridge
 
E|-------------------------------------------------------------
H|-------------------------------------------------------------
G|-------------------------------------------------------------
D|-7-7-777-3-3-3333-5-5-5-22-3-3-2355--7-7-777-3-3-3333-0-2-3-5
A|-7-7-777-3-3-3333-5-5-5-22-3-3-2355--7-7-777-3-3-3333-0-2-3-5
D|-7-7-777-3-3-3333-5-5-5-22-3-3-2355--7-7-777-3-3-3333-0-2-3-5
 
Bridge
            FAST             FAST            FAST
E|---------------------------------------------------------------
H|---------------------------------------------------------------
G|--------2-0-2-0----------2-0-2-0----------2-0-2-0--------------
D|-22-22---------2-0-22-22--------2-0-22-22--------2-0-1010-1212-
A|-22-22-------------22-22------------22-22------------1010-1212-
D|-22-22-------------22-22------------22-22------------1010-1212-



 
           FAST              FAST             FAST
E|---------------------------------------------------------------
H|---------------------------------------------------------------
G|--------2-0-3-0----------2-0-3-0----------2-0-3-0--------------
D|-22-22---------2-0-22-22--------2-0-22-22--------2-0-1010-1212-
A|-22-22-------------22-22------------22-22------------1010-1212-
D|-22-22-------------22-22------------22-22------------1010-1212-
 
Quiet Chorus
    All P.M
E|----------------------------------------------------------------
H|----------------------------------------------------------------
G|----------------------------------------------------------------
D|-7-7-7-7-7-7-7-7-7-7-7-7-7-7-7-7-3-3-3-3-3-3-3-3-3-3-3-3-3-3-3-3
A|-7-7-7-7-7-7-7-7-7-7-7-7-7-7-7-7-3-3-3-3-3-3-3-3-3-3-3-3-3-3-3-3
D|-7-7-7-7-7-7-7-7-7-7-7-7-7-7-7-7-3-3-3-3-3-3-3-3-3-3-3-3-3-3-3-3
 
 
E|----------------------------------------------------------------
H|----------------------------------------------------------------
G|----------------------------------------------------------------
D|-5-5-5-5-5-5-5-5-5-5-5-5-5-5-5-5-7-7-7-7-7-7-7-7-7-7-7-7-5-5-5-5
A|-5-5-5-5-5-5-5-5-5-5-5-5-5-5-5-5-7-7-7-7-7-7-7-7-7-7-7-7-5-5-5-5
D|-5-5-5-5-5-5-5-5-5-5-5-5-5-5-5-5-7-7-7-7-7-7-7-7-7-7-7-7-5-5-5-5
 
Solo, after Solo, repeat the Chorus 2 times, then go to the Outro 

                                       {      A.H   }         {     A.H     }
E|----------------------------------------------------------------
H|-/13--/12--/10~~/13~13------------------------------------------
G|--------------------------5----8-7-5-7-5------5---8-7-5-7-5-5---
D|-----------------------/7---7-----------7--/7---7----------7----
A|----------------------------------------------------------------
D|----------------------------------------------------------------



E|-------------------------------------------------------17------------

H|-8~~10b12~12r10--12b13~13r12--12b15~15r12--15b17-16b18----18-17-17b18
G|---------------------------------------------------------------------
D|---------------------------------------------------------------------
A|---------------------------------------------------------------------
D|---------------------------------------------------------------------

 

E|------------12----12-17~~

H|---10-12-13----13--------
G|-9-----------------------
D|-------------------------
A|-------------------------
D|-------------------------

 

Outro

           FAST                 FAST            FAST

E|-------------------------------------------------------------

H|-------------------------------------------------------------

G|--------7-5-7-5-----------7-5-7-5-----------7-5-7-5----------

D|-77-77----------7-5-77-77---------7-5-77-77---------7-5-33-55

A|-77-77--------------77-77-------------77-77-------------33-55

D|-77-77--------------77-77-------------77-77-------------33-55

 

           FAST               FAST             FAST

E|---------------------------------------------------------------

H|---------------------------------------------------------------
G|-------7-5-8-5-----------7-5-8-5-----------7-5-8-5-------------
D|-77-77---------7-5-77-77---------7-5-77-77---------7-5-33-55-77
A|-77-77-------------77-77-------------77-77-------------33-55-77
D|-77-77-------------77-77-------------77-77-------------33-55-77